Oops, an error
Loading. Please wait.

You Cant Quit Me Baby Bass

version 1
version 1

Whole song

Interactive

6,840 views 6 this week
7 commentsread comments
1 2 3 4 5
x 8
add to favorites
launch autoscroll
font size
0
reset
guitar tuner
×
Best way to learn
"You Cant Quit Me Baby"
Autoscroll
slow
fast
+/-
esc
set tempo
stop
The whole song is using heavy fuzz/distortion

intro/verse: 0:00-1:46, 1:55-2:09, 2:21-5:00, 
G|--------------------------------------------------------------|
D|------5-3-5-3-------------------------------------------------| 
A|--------------5-3-5-------------------------------------------|
E|--3-3---------------------------------------------------------|

chorus: 1:46-1:55, 2:09-2:21
G|--------------------------------------------------------------|
D|--------------------------5-3-5-3-----------------------------| 
A|----3-3-3-3-3-3-3-3-5-------------5-3-5-----------------------|
E|----------------------3-3-------------------------------------|

at 5:00 verse riff starts to speed up then by about 5:30, you just play this
G|--------------------------------------------------------------|
D|--------------------------------------------------------------| 
A|---55555555-33333-55555-333333--------------------------------|
E|--------------------------------------------------------------|

at 5:50 or so you can play whatever you want, so have fun
Suggest correction
comments
print report bad tab
7 comments total. Showing first comments.
0 reply
Thinsanity 10 Jan 03, 2005 07:00 PM

Ehh... I think it's wrong...
I play it like this (you can use a capo):
G|---------------------
D|------3-1-3-1-----1-3
A|---------------------
E|--1-1---------1-1----
It starts on an F#.

0 reply
bs5538 10 Mar 06, 2006 10:31 AM

thinsanity, your tab is somewhat right, but it starts on F. and the 1-3-1 is a hammer-on pull-off. You don't need a capo for standard tuning.

0 reply
Tomnthegang 72 Dec 29, 2006 05:14 PM

http://www.youtube.com/watch?v=1kXUTQWrCVY
Watch that. He must have his bass tuned Veeery low. Can anyone analise this and give us some info please? The video is great. It zooms right in on what he's playing at about 35 seconds.

guest
You may want to rate the tab now too:
select rating
Wanna post a correction for this tab? Suggest correction