Oops, an error
Loading. Please wait.

You Cant Quit Me Baby bass

version 2
version 2

Whole song

Interactive

7,526 views 6 this week
2 commentsread comments
1 2 3 4 5
x 5
add to favorites
×
Save as Personal and add changes to this tab that will be seen only by you. Learn more ›
×
You can save this tab as Personal to edit and correct it or add notes. All changes will be seen only by you. Learn more »
launch autoscroll
font size
0
reset
guitar tuner
edit
Autoscroll
slow
fast
+/-
esc
set tempo
stop
Author
QOTSA - You can't quit me, baby
Bass tab by ZaCh45

Not sure of the actual tuning but I like to play in drop D.

1st riff:
G|---------------------------|
D|--------4---2h4p2-----2h4--|
A|---------------------------|
D|--4--4------------4-4------|

To change it up just add/remove a note here and there, ignore the hammer on/pull offs, 
volume, etc.

Variations(a few examples):
G|---------------------------|
D|--------4---2h4p2----------|
A|----------------------2h4--|
D|--4--4------------4-4------|

G|---------------------------|
D|--------4---2h4p2------2h4-|
A|---------------------------|
D|--4--4------------4-4------|

G|---------------------------|
D|--------4---2h4p2-----4----|
A|---------------------------|
D|--4--4------------4--------|

2nd riff:
G|------------------------------------------------------------------|
D|------------------------------------------------------------------|
A|------------------------------------------------------------------|
D|--4-4-4-4-4-4-4-4-6-6-6-6-6-6-6-6-7-7-7-7-7-7-7-7-7-7-7-7-7-7-7-7-|
 |       4*8       |      6*8      |             7*16               |

3rd riff:
G|----------------------------------|
D|----------------------------------|
A|----------------------------------|
D|--7-7-7-7-7-7-7-7-4-4-4-4-4-4-4-4-|
 |       7*8       |      4*8       |

That's about it.  Change up the 1st riff to keep it interesting. Play along to find out 
to play each riff(it's pretty easy to hear).

            
            
Suggest correction
Creating personal tab
Creating personal tab
You can edit any tab online and save it as your Personal.

You can edit, replace or remove any tab part or add personal notes – all changes will be seen only by you.

Personal tabs can be accessed anytime from any device, even offline.
Learn more »
comments
print report bad tab
2 comments total.
+1 reply
dw-fan 1,445 Jun 23, 2009 07:08 AM

the tuning is c standart

+1 reply
Tragically_Hip 10 Dec 03, 2010 10:21 AM

yeah, it's c. this tab is quite off

guest
You may want to rate the tab now too:
select rating
Wanna post a correction for this tab? Suggest correction