Oops, an error
Loading. Please wait.
We have an official You Think I Aint Worth A Dollar But I Feel Like A Millionaire tab made by UG professional guitarists. Check out the tab »
×

You Think I Aint Worth A Dollar But I Feel Like A Millionaire tab

version 1
version 1

Whole song

  • There's a bit of modification on the 2nd Chorus, b... Show more

Interactive

1,459 views 42 this week
no commentswrite comment
1 2 3 4 5
x 4
add to favorites
×
Save as Personal and add changes to this tab that will be seen only by you. Learn more ›
×
You can save this tab as Personal to edit and correct it or add notes. All changes will be seen only by you. Learn more »
launch autoscroll
font size
0
reset
how to read this tab
guitar tuner
backing track
0:00
0:00
edit
Autoscroll
slow
fast
+/-
esc
set tempo
stop
About this tab version
There's a bit of modification on the 2nd Chorus, based on the Live versions they play nowadays. Also, the Riff pattern at the 6th string is more specific than the other versions of this tab. Was this info helpful? Yes No
The most epic opening for an epic album, but people keep messing it up at the 3 guitars part & stuff.
Like almost every other QOTSA songs, just simply 2 guitars.
Guit.1: Josh's
Guit.2: Troy's


[Intro]

(start after the drums have played for awhile, but don't let it go too long)

Guit.1
C |--------------------|        |--------------------------|
G |--------------------|        |--------------------------|
D#|--------------------| X3     |--------------------------|
A#|-5-7----------------|        |-------7-5----------------|
F |--------------------|        |-7-5-7--------------------|
C |-----0||||-0|||-0-0-|        |-----------0||||-0|||-0-0-|


[Verse 1]

(Nick Oliveri screaming at your face & the 2nd Guit comes in)

Both Guitars 
Dead bull with the life from the low
I’ll be massive conquistador
Give me soul and show me the door
Metal heavy, soft at the core
Gimme toro, gimme some more
Pressurize, neutralize
C |--------------------|        
G |--------------------|        
D#|--------------------|   X6     
A#|-5-7----------------|        
F |--------------------|        
C |-----0||||-0|||-0-0-|


Both Guitars
Deep fried, gimme some more
C |------------------|        
G |------------------|        
D#|------------------|        
A#|-5-7--------------|        
F |------------------|        
C |-----0||||-0|||-0-|


[Chorus]

Guit.1 (yes, Guit.1 plays the Riff Variations in the Chorus)
C |---------|  |-------------|  |---------|  |----------------------|
G |---------|  |-------------|  |---------|  |----------------------|
D#|---------|  |-------------|  |---------|  |-------12----14b15-12-|
A#|-7||-5-5-|  |-----5-------|  |-7||-5-5-|  |-12-14----14----------|
F |-7||-5-5-|  |-5-7---7-5-7-|  |-7||-5-5-|  |----------------------|
C |-5||-3-3-|  |-------------|  |-5||-3-3-|  |----------------------|

Guit.2
C |--------------------|        
G |--------------------|        
D#|--------------------|    X2     
A#|-5||-5-5|||||||||||-|        
F |-5||-5-5|||||||||||-|        
C |-7||-3-3|||||||||||-|


Both Guitars 
(uuhhhhhh)
C |--------------------|        
G |--------------------|        
D#|--------------------|   X4     
A#|-5-7----------------|        
F |--------------------|        
C |-----0||||-0|||-0-0-|


[Verse 2]

Both Guitars 
Space flunky, four on the floor
C |--------------------|  |--------------------------|
G |--------------------|  |--------------------------|
D#|--------------------|  |--------------------------|
A#|-5-7----------------|  |-------7-5----------------|
F |--------------------|  |-7-5-7--------------------|
C |-----0||||-0|||-0-0-|  |-----------0||||-0|||-0-0-|

Both Guitars
Fortified with the liqour store
This one's down, gimme some more
Gimme toro, gimme some more (x3)
C |--------------------|        
G |--------------------|        
D#|--------------------|   X5     
A#|-5-7----------------|        
F |--------------------|        
C |-----0||||-0|||-0-0-|


[Chorus]

Guit.1 
C |---------|  |-------------------|  |---------|  |-------------------------------|
G |---------|  |-------------------|  |---------|  |-------------------------------|
D#|---------|  |-------------------|  |---------|  |-------------------15-12-15-12-|
A#|-7||-5-5-|  |-----5-7p5---7p5---|  |-7||-5-5-|  |-------12-14-12-14-------------|
F |-7||-5-5-|  |-5-7-------7-----7-|  |-7||-5-5-|  |-12-14-------------------------|
C |-5||-3-3-|  |-------------------|  |-5||-3-3-|  |-------------------------------|

Guit.2
C |--------------------|        
G |--------------------|        
D#|--------------------|    X2     
A#|-5||-5-5|||||||||||-|        
F |-5||-5-5|||||||||||-|        
C |-7||-3-3|||||||||||-|


[Bridge]

Guit.1
C |--------------------------|
G |--------------------------|
D#|--------------------------|
A#|---------5-7--------------|
F |-------------5-7----------|
C |-0||||||---------5-7-3-5--|
                                       X2
Guit.2 
C |---------|
G |---------|
D#|---------|
A#|---------|
F |---------|
C |-0||||||-|


Guit.1
C |--------------------------|
G |--------------------------|
D#|--------------------------|
A#|---------5-7--------------|
F |-------------5-7----------|
C |-0||||||---------5-7-3-5--|

Guit.2
C |--------------------------|
G |--------------------------|
D#|---------7-9--------------|
A#|-------------7-9----------|
F |-----------------7-9-5-7--|
C |-0||||||------------------|


Guit.1
C |--------------------|
G |--------------------|
D#|-7-9p7---7-9b10-9~~-|
A#|-------9------------|
F |--------------------|
C |--------------------|

Guit.2
C |--------------------------|
G |--------------------------|
D#|---------7-9--------------|
A#|-------------7-9----------|
F |-----------------7-9-5-7--|
C |-0||||||------------------|


[Verse 3]

Guit.1
Shrunken head I love to adore
B-movie, gimme some gore
C |--------------------------|
G |--------------------------|
D#|--------------------------|
A#|--------------4-6---------|
F |----------2-4-----4-6-2-4-|
C |-0||||-0|-----------------|
                                     X2
Guit.2
C |--------------------------|
G |--------------------------|
D#|----------7-9-------------|
A#|--------------7-9---------|
F |------------------7-9-5-7-|
C |-0||||-0|-----------------|


Guit.1
Gimme toro, gimme some more
C |--------------------------|
G |--------------------------|
D#|--------------------------|
A#|---------5-7--------------|
F |-------------5-7----------|
C |-0||||||---------5-7-3-5--|

Guit.2
C |--------------------------|
G |--------------------------|
D#|----------7-9-------------|
A#|--------------7-9---------|
F |------------------7-9-5-7-|
C |-0||||-0|-----------------|


Guit.1
B-movie, gimme some gore
C |----------------|
G |----------------|
D#|----------------|
A#|----------5-7---|
F |----------------|
C |-0||||-0|-----0-|
                                     
Guit.2
C |----------------|
G |----------------|
D#|----------7-9---|
A#|----------------|
F |----------------|
C |-0||||-0|-----0-|


[Chorus]

Guit.1 
C |---------|  |-----------------| 
G |---------|  |-----------------|  
D#|---------|  |-14br16-12h14p12-|  
A#|-7||-5-5-|  |-----------------|  
F |-7||-5-5-|  |-----------------|  
C |-5||-3-3-|  |-----------------|  

Guit.2
C |---------|  |-----------------| 
G |---------|  |-----------------|  
D#|---------|  |-----------------|  
A#|-7||-5-5-|  |-7br9-5h7p5------|  
F |-7||-5-5-|  |-----------------|  
C |-5||-3-3-|  |-----------------|


Guit.1
C |----------------|  |-----------------|         
G |----------------|  |-----------------|         
D#|----------------|  |-----------------|          
A#|-5||-5-5|||||||-|  |-5-7-------------|         
F |-5||-5-5|||||||-|  |-----5-7---------|         
C |-7||-3-3|||||||-|  |---------5-7-3-5-| 

Guit.2
C |----------------|  |-----------------|         
G |----------------|  |-----------------|         
D#|----------------|  |-7-9-------------|          
A#|-5||-5-5|||||||-|  |-----7-9---------|         
F |-5||-5-5|||||||-|  |---------7-9-5-7-|         
C |-7||-3-3|||||||-|  |-----------------| 


[Verse 4]

Both Guitars
C |----------------------|        |--------------------------|
G |----------------------|        |--------------------------|
D#|----------------------| X2     |--------------------------|
A#|------------------7-5-|        |----------------------7-5-|
F |----------------------|        |----------------7-5-7-----|
C |-0-0||||-0|||-0-0-----|        |-0||||-0|||-0-0-----------|


Guit.1
C |-------------------|       
G |-------------------|       
D#|-------------------| 
A#|-------------------|        
F |-------------------|        
C |---0||||-0|||-0-0--|        

Guit.2
C |----------------|       
G |----------------|       
D#|----------------| 
A#|----------------|        
F |----------------|        
C |---0||||-0|||-0-|  


Guit.1
Gimme toro, gimme some more (x4)
C |----------------------------|        
G |----------------------------|        
D#|-------------15b17----------|       
A#|-------12-------------------|        
F |-12-14----14----------------|        
C |-------------0||||-0|||-0---|
                                        X4
Guit.2
C |--------------------|        
G |--------------------|        
D#|--------------------|        
A#|-5-7----------------|        
F |--------------------|        
C |-----0||||-0|||-0-0-|


Both Guitars
Gimme toro, gimme some more 
C |------------|
G |------------|
D#|------------|
A#|------------|
F |------------|
C |-0||||-0|||-|


[Chorus]

Guit.1 
C |---------|  |----------------------| 
G |---------|  |----------------------|  
D#|---------|  |-------12-------15b17-|  
A#|-7||-5-5-|  |-12-14----14-12-------|  
F |-7||-5-5-|  |----------------------|  
C |-5||-3-3-|  |----------------------|  

Guit.2
C |--------------------|        
G |--------------------|        
D#|--------------------|         
A#|-5||-5-5|||||||||||-|        
F |-5||-5-5|||||||||||-|        
C |-7||-3-3|||||||||||-|


[Outro]

Guit.1
C |----------------|  |-----------------|         
G |----------------|  |-----------------|         
D#|----------------|  |-----------------|          
A#|-5||-5-5|||||||-|  |-5-7-------------|         
F |-5||-5-5|||||||-|  |-----5-7---------|         
C |-7||-3-3|||||||-|  |---------5-7-3-5-| 

Guit.2
C |----------------|  |-----------------|         
G |----------------|  |-----------------|         
D#|----------------|  |-7-9-------------|          
A#|-5||-5-5|||||||-|  |-----7-9---------|         
F |-5||-5-5|||||||-|  |---------7-9-5-7-|         
C |-7||-3-3|||||||-|  |-----------------| 

************************************

| x   Dead note
| g   Grace note
| (n) Ghost note
| h   Hammer-on
| p   Pull-off
| r   Release
| >   Accented note
| t   Tapping
| b   Bend
| br  Bend release
| pb  Pre-bend
| pbr Pre-bend release
| /   Slide up
| \   Slide down
| ~   Vibrato
| s   Slap
| P   Pop
| PM  Palm mute
| TR  Trill
| N   Tremolo

************************************

            
            
Suggest correction
Creating personal tab
Creating personal tab
You can edit any tab online and save it as your Personal.

You can edit, replace or remove any tab part or add personal notes – all changes will be seen only by you.

Personal tabs can be accessed anytime from any device, even offline.
Learn more »
comments
print report bad tab
guest
You may want to rate the tab now too:
select rating
Wanna post a correction for this tab? Suggest correction