Oops, an error
Loading. Please wait.

You Think I Aint Worth A Dollar Tab

version 1
version 1

Whole song

Interactive

52,589 views 63 this week
3 commentsread comments
1 2 3 4 5
x 12
add to favorites
launch autoscroll
font size
0
reset
how to read this tab
guitar tuner
×
Best way to learn
"You Think I Aint Worth A Dollar"
Autoscroll
slow
fast
+/-
esc
set tempo
stop
Author
Tuning
  follow
C F A# D# G C
YOU THINK I AIN'T WORTH A DOLLAR, BUT I FEEL LIKE A MILLIONAIRE
                     As recorded by Queens Of The Stone Age
                    (From the 2002 Album SONGS FOR THE DEAF)

Words and Music by Josh Homme, Nick Oliveri & Mario Lalli
Transcribed by www.mikesguitarsite.co.uk

Gtr I (C F Bb Eb G C) - 'Josh Homme - Rhythm w/dist'
Gtr II (C F Bb Eb G C) - 'Josh Homme - Rhythm w/dist'
Gtr III (C F Bb Eb G C) - 'Josh Homme - Lead w/dist'

   
[Intro]
    Q=160
   4/4
    Gtr I
C |---||-----------------|--------------------||----------------|
G |---||o----------------|-------------------o||----------------|
D#|---||-----------------|--------------------||----------------|
A#|-5-||--7--------------|-----------------5--||-7--------------|
F |---||o----------------|-------------------o||----------------|
C |---||----0-0-0-0-0--0-|-0-0-0-0-(0)-0-0----||---0-0-0-0-0--0-|


C |-----------------|----------------|-------------------||
G |-----------------|----------------|-------------------||
D#|-----------------|----------------|-------------------||
A#|---------------7-|-5--------------|-----------------5-||
F |---------7-5-7---|----------------|-------------------||
C |-0-0-0-0---------|---0-0-0-0-0--0-|-0-0-0-0-(0)-0-0---||


     [Verse 1]

      Gtrs I, II
                                          7x
C ||-----------------|--------------------||----------------|
G ||o----------------|-------------------o||----------------|
D#||-----------------|--------------------||----------------|
A#||--7--------------|-----------------5--||-7--------------|
F ||o----------------|-------------------o||----------------|
C ||----0-0-0-0-0--0-|-0-0-0-0-(0)-0-0----||---0-0-0-0-0--0-|


                      [Interlude]

                    Gtr III
                                                        ~~~~~~~
C |-----------------||----------------------|------------------------|
G |-----------------||----------------------|------------------------|
D#|-----------------||----------------------|------------------------|
A#|-----------------||----------------------|------------------------|
F |-----------------||----------------------|------------------------|
C |-----------------||-------------10-12-10-|-12-10-12-12-(12)-------|
|
  | Gtrs I, II
C |-----------------||----------------------|------------------------|
G |-----------------||----------------------|------------------------|
D#|-----------------||----------------------|------------------------|
A#|---------7-7-7-5-||-(5)-5-5-5-5--5--5--5-|--5--5--5--5---7--7-7-5-|
F |---------7-7-7-5-||-(5)-5-5-5-5--5--5--5-|--5--5--5--5---7--7-7-5-|
C |-0-0-0-0-5-5-5-3-||-(3)-3-3-3-3--3--3--3-|--3--3--3--3---5--5-5-3-|


                                               ~~~~~~~~~~~
C |-------------------|----------------------------|-----------------------|
G |-------------------|----------------------------|-----------------------|
D#|-------------------|---------12----14b14.5-12---|-(12)-----(12)\--------|
A#|-------------------|---12-14----14--------------|-----------------------|
F |-------------------|----------------------------|-----------------------|
C |-------------------|----------------------------|-----------------------|
|
C |-------------------|----------------------------|-----------------------|
G |-------------------|----------------------------|-----------------------|
D#|-------------------|----------------------------|-----------------------|
A#|-(5)-5-5-5-5-5-5-5-|-5--5--5--5--5--5-------5-5-|---7-------------------|
F |-(5)-5-5-5-5-5-5-5-|-5--5--5--5--5--5-------5---|-----------------------|
C |-(3)-3-3-3-3-3-3-3-|-3--3--3--3--3--3-------3---|------0-0---0---0-0--0-|


    Gtrs I, II
                                                              3x
C |-------------------||-----------------|--------------------||
G |-------------------||o----------------|-------------------o||
D#|-------------------||-----------------|--------------------||
A#|-----------------5-||--7--------------|-----------------5--||
F |-------------------||o----------------|-------------------o||
C |-0-0-0-0-(0)-0-0---||----0-0-0-0-0--0-|-0-0-0-0-(0)-0-0----||


   [Verse 2]

C |----------------|-----------------|----------------|-------------------|
G |----------------|-----------------|----------------|-------------------|
D#|----------------|-----------------|----------------|-------------------|
A#|-7--------------|---------------7-|-5--------------|-----------------5-|
F |----------------|---------7-5-7---|----------------|-------------------|
C |---0-0-0-0-0--0-|-0-0-0-0---------|---0-0-0-0-0--0-|-0-0-0-0-(0)-0-0---|


                      1.,2.,3.               4.
C ||-----------------|--------------------||-------------------||
G ||o----------------|-------------------o||-------------------||
D#||-----------------|--------------------||-------------------||
A#||--7--------------|-----------------5--||----------7-7-7-5--||
F ||o----------------|-------------------o||----------7-7-7-5--||
C ||----0-0-0-0-0--0-|-0-0-0-0-(0)-0-0----||--0-0-0-0-5-5-5-3--||


  [Interlude]

    Gtr III
                                                     ~~
C |----------------------|-----------------------------------|
G |----------------------|-----------------------------------|
D#|----------------------|-----------------------------------|
A#|----------------------|-----------------------------------|
F |-------------------10-|-12b14==(12)r(12)p10---------------|
C |-------------10-12----|---------------------12---12-------|
  |
  | Gtrs I, II
C |----------------------|-----------------------------------|
G |----------------------|-----------------------------------|
D#|----------------------|-----------------------------------|
A#|-(5)-5-5-5-5--5--5--5-|----------5----5------5-5--7-7-7-5-|
F |-(5)-5-5-5-5--5--5--5-|----------5----5------5-5--7-7-7-5-|
C |-(3)-3-3-3-3--3--3--3-|----------3----3------3-3--5-5-5-3-|


C |----------------------|--------------------------|
G |----------------------|----------15s12-15s12-----|
D#|-------------------12s|=14s12s14-----------------|
A#|-------------12s14----|--------------------------|
F |----------------------|--------------------------|
C |----------------------|--------------------------|
  |
C |----------------------|--------------------------|
G |----------------------|--------------------------|
D#|----------------------|--------------------------|
A#|-(5)-5-5-5-5--5--5--5-|--5--5--5--5--5--5--5-5---|
F |-(5)-5-5-5-5--5--5--5-|--5--5--5--5--5--5--5-----|
C |-(3)-3-3-3-3--3--3--3-|--3--3--3--3--3--3--3-----|


      ~~~~
C |-------------------||------------------|-----------------||
G |-(12)--------------||o-----------------|----------------o||
D#|-------------------||------------------|-----------------||
A#|-------------------||------------------|-----------------||
F |-------------------||o-----------------|----------------o||
C |-------------------||------------------|-----------------||
  |
C |-------------------||------------------|-----------------||
G |-------------------||o-----------------|----------------o||
D#|-------------------||------------------|-----------------||
A#|---7---------------||----5s7-----------|-----------------||
F |-------------------||o-------5s7-------|----------------o||
C |------0-0-0-0-0--0-||--0---------5s7-3s|=5-0-0-0-0-0--0--||


    Gtr II
C |-----------------|----------------|
G |-----------------|----------------|
D#|---7s9-----------|----------------|
A#|-------7s9-------|----------------|
F |-----------7s9-5s|=7--------------|
C |-0---------------|---0-0-0-0-0--0-|
  |
  | Gtr I
C |-----------------|----------------|
G |-----------------|----------------|
D#|-----------------|----------------|
A#|---5s7-----------|----------------|
F |-------5s7-------|----------------|
C |-0---------5s7-3s|=5-0-0-0-0-0--0-|


                                [Verse 3]

                                  ~~~
C |---------------------------||--------------------|
G |---------------------------||--------------------|
D#|---7-9p7---7-9b11==(9)r====||=(9)----------------|
A#|---------9-----------------||--------------------|
F |---------------------------||--------------------|
C |-0-------------------------||-------0-0-0-0--0---|
  |
C |---------------------------||--------------------|
G |---------------------------||--------------------|
D#|---------------------------||--------------------|
A#|---5s7---------------------||--------------------|
F |---------5s7---------------||--------------------|
C |-0------------------5s=7-3s||==5--0-0-0-0-0--0---|


C ||-----------------------|------------------||
G ||o----------------------|-----------------o||
D#||---------11s13---------|------------------||
A#||----9s11-------11s13-9s|=11---------------||
F ||o----------------------|-----------------o||
C ||--0--------------------|----0-0-0-0-0--0--||
   |
C ||-----------------------|------------------||
G ||o----------------------|-----------------o||
D#||----7s=9---------------|------------------||
A#||----------7s=9---------|------------------||
F ||o---------------7s=9-5s|==7--------------o||
C ||--0--------------------|----0-0-0-0-0--0--||


C |-----------------|-----------------|
G |-----------------|-----------------|
D#|---7s9-----------|-----------------|
A#|-------7s9-------|-----------------|
F |-----------7s9-5s|=7---------------|
C |-0---------------|---0-0-0-0-0--0--|
  |
C |-----------------|-----------------|
G |-----------------|-----------------|
D#|-----------------|-----------------|
A#|---5s7-----------|-----------------|
F |-------5s7-------|-----------------|
C |-0---------5s7-3s|=5-0-0-0-0-0--0--|


                      [Interlude]

    Gtr III
C |-----------------||-------------------------------|
G |-----------------||-------------------------------|
D#|-----------------||-----------14pb16r==(14)-14-14-|
A#|-----------------||-------------------------------|
F |-----------------||-------------------------------|
C |-----------------||-------------------------------|
  
  | Gtrs I, II
C |-----------------||-------------------------------|
G |-----------------||-------------------------------|
D#|-----------------||-------------------------------|
A#|---5-7---7-7-7-5-||-(5)-5-5-5--5-----5---5---5----|
F |---------7-7-7-5-||-(5)-5-5-5--5-----5---5---5----|
C |-0-----0-5-5-5-3-||-(3)-3-3-3--3-----3---3---3----|


           ~~~~~~~
C |-------------------------|---------------------|
G |-------------------------|---------------------|
D#|-12h14-12-(12)-----------|---------------------|
A#|-------------------------|---------------------|
F |-------------------------|---------------------|
C |-------------------------|---------------------|
  |
C |-------------------------|---------------------|
G |-------------------------|---------------------|
D#|-------------------------|---------------------|
A#|--5-----5---5--5-5-7-7-5-|-(5)-5-5-5-5-5-5-5---|
F |--5-----5---5--5-5-7-7-5-|-(5)-5-5-5-5-5-5-5---|
C |--3-----3---3--3-3-5-5-3-|-(3)-3-3-3-3-3-3-3---|


                                                  3/4
C |------------------------|-----------|---------|---------|
G |---15s17----------------|-----------|---------|---------|
D#|---------14s16----------|-----------|---------|---------|
A#|---------------14s16-12s|=14--------|---------|---------|
F |------------------------|-----------|---------|---------|
C |------------------------|-----------|---------|---------|
  |
C |------------------------|-----------|---------|---------|
G |------------------------|-----------|---------|---------|
D#|------------------------|-----------|---------|---------|
A#|-5--5s=7----------------|-----------|---------|---------|
F |-5--------5s=7----------|-----------|---------|---------|
C |-3--------------5s=7--3-|--0--------|---------|------0--|


   4/4
    Gtrs I, II
C |------------------|-------------------|----------------|-------------------|
G |------------------|-------------------|----------------|-------------------|
D#|------------------|-------------------|----------------|-------------------|
A#|------------------|-----------------5-|-7--------------|-----------------5-|
F |------------------|-------------------|----------------|-------------------|
C |-(0)-0-0-0-0-0--0-|-0-0-0-0-(0)-0-0---|---0-0-0-0-0--0-|-0-0-0-0-(0)-0-0---|


                                                      Gtr II
C |----------------|-----------------|----------------|-----------------------||
G |----------------|-----------------|----------------|--------------------15-||
D#|----------------|-----------------|----------------|--------------12-------||
A#|----------------|-----------------|----------------|-------12-14-----14----||
F |----------------|-----------------|----------------|-----------------------||
C |----------------|-----------------|----------------|-0-0-0-----------------||
  |
  | Gtrs I, II                                        Gtr I
C |----------------|-----------------|----------------|-----------------------||
G |----------------|-----------------|----------------|-----------------------||
D#|----------------|-----------------|----------------|-----------------------||
A#|-7--------------|---------------7-|-5--------------|---------------------5-||
F |----------------|---------7-5-7---|----------------|-----------------------||
C |---0-0-0-0-0--0-|-0-0-0-0---------|---0-0-0-0-0--0-|-0-0-0--0-(0)--0--0----||


     [Outro]
                                                         3x
C ||----------------------------|------------------------||
G ||o-(15)b17==(15)r------------|--------------------15-o||
D#||----------------------------|--------------12--------||
A#||----------------------------|-------12-14-----14-----||
F ||o---------------------------|-----------------------o||
C ||-----------------0-0-0-0--0-|-0-0-0------------------||
|
  |                                                      3x
C ||----------------------------|------------------------||
G ||o---------------------------|-----------------------o||
D#||----------------------------|------------------------||
A#||----7-----------------------|---------------------5--||
F ||o---------------------------|-----------------------o||
C ||-------------0---0-0-0-0--0-|-0-0-0--0-(0)--0--0-----||


C |---------------------------|------------------|
G |-(15)b17==(15)r------------|------------------|
D#|---------------------------|------------------|
A#|---------------------------|---------7-7-7-5--|
F |---------------------------|---------7-7-7-5--|
C |----------------0-0-0-0--0-|-0-0-0-0-5-5-5-3--|
  |
C |---------------------------|------------------|
G |---------------------------|------------------|
D#|---------------------------|------------------|
A#|---7-----------------------|---------7-7-7-5--|
F |---------------------------|---------7-7-7-5--|
C |------------0---0-0-0-0--0-|-0-0-0-0-5-5-5-3--|


    Gtr III
C |----------------------|----------------------------|
G |----------------------|-------15b17====(15)r-------|
D#|-------------------12-|----------------------------|
A#|-------------12-14----|-14-12----------------------|
F |----------------------|----------------------------|
C |----------------------|----------------------------|
  |
  | Gtrs I, II
C |----------------------|----------------------------|
G |----------------------|----------------------------|
D#|----------------------|----------------------------|
A#|-(5)-5-5-5-5--5--5--5-|--5--5--5-----5---7---7-7-5-|
F |-(5)-5-5-5-5--5--5--5-|--5--5--5-----5---7---7-7-5-|
C |-(3)-3-3-3-3--3--3--3-|--3--3--3-----3---5---5-5-3-|


C |-------------------|------------------------|-----------*|
G |-------------------|---15s17----------------|-----------*|
D#|-------------------|---------14s16----------|-----------*|
A#|-------------------|---------------14s16-12s|=14--------*|
F |-------------------|------------------------|-----------*|
C |-------------------|------------------------|-----------*|
  |
C |-------------------|------------------------|-----------*|
G |-------------------|------------------------|-----------*|
D#|-------------------|------------------------|-----------*|
A#|-(5)-5-5-5-5-5-5-5-|-5--5s=7----------------|-----------*|
F |-(5)-5-5-5-5-5-5-5-|-5--------5s=7----------|-----------*|
C |-(3)-3-3-3-3-3-3-3-|-3--------------5s=7--3-|--0--------*|

******************************************
 
 h   - hammer-on
 p   - pull-off
 b   - bend
 pb  - pre-bend
 r   - bend release (if no number after the r, then release immediately)
 /\  - slide into or out of (from/to "nowhere")
 s   - legato slide
 S   - shift slide

 |  - bar
||  - double bar
||o - repeat start
o|| - repeat end
*|  - double bar (ending)
 :  - bar (freetime)
 $  - Segno
 &  - Coda
Tempo markers -  = BPM(8/16=s8/s16), where s8 = swing 8ths, s16 = swing 16ths

******************************************
Suggest correction
comments
print report bad tab
3 comments total.
0 reply
FagNasty 133 May 04, 2006 02:33 AM

This tab is pretty much perfect. Good job.

0 reply
NzT 101 May 06, 2011 01:18 AM

Great dude. I don't think you'll get as many views with the name as to "Millionaire" or something though.

0 reply
von_lidl 100 Aug 25, 2013 01:05 AM

Love it! Thanks :)

guest
You may want to rate the tab now too:
select rating
Wanna post a correction for this tab? Suggest correction