Oops, an error
Loading. Please wait.

Youve Got A Killer Scene There Man bass

5,886 views 6 this week
1 commentread comment
1 2 3 4 5
x 6
add to favorites
×
Save as Personal and add changes to this tab that will be seen only by you. Learn more ›
×
You can save this tab as Personal to edit and correct it or add notes. All changes will be seen only by you. Learn more »
launch autoscroll
font size
0
reset
guitar tuner
edit
Autoscroll
slow
fast
+/-
esc
set tempo
stop
Author
Difficulty
G|---------------------------|  |-----------------------------|
D|---------------------------|  |----------------------4-2----|
A|------7-7\--------7-7\-----|x3|-------7-7\-------2-5-----2--|
E|0-----------0--0-------3h5-|  |0-----------0-2-3------------|

Verse:
G|---------------------------|  |----------------------------|
D|---------------------------|  |----------------------2---0-|
A|------7-7\--------7-7\-----|x7|-------7-7\-------5-2---0---|
E|0-----------0--0-------3h5-|  |0-----------0-2-3-----------|

Pause

G|-------------------------7-----| 
D|-----------------------9---9-7-| 
A|------7-7\--------7-7\---------|
E|0-----------0--0---------------| 

Pause

G|-----------------------------------------------------|
D|-----------------------------------------------------|
A|------7-7\--------7-7\-----------7-7\-----7--------7-|
E|0-----------0--0-------3h5-0-----------0-----11------|

G|------------------------9h11----------------------------------|
D|---------------------7h9----12--------------------------2-4-5-|
A|------7-7\--------7-------------------7-7\----------2-4-------|
E|0-----------0--7----------------0-----------0---2-3-----------|

Verse:
G|---------------------------|  |-----------------------------|
D|---------------------------|  |-----------------------4-----|
A|------7-7\--------7-7\-----|x3|-------7-7\--------2-5---4-5-|
E|0-----------0--0-------3h5-|  |0-----------0--2-3-----------|

G|---------------------------|  |-------------------------------|
D|---------------------------|  |----------------------2---0----|
A|------7-7\--------7-7\-----|x7|-------7-7\-------5-2---0---2--|
E|0-----------0--0-------3h5-|  |0-----------0-2-3--------------|

Pause

G|------------------------------------|
D|------------------------------------|
A|2/--------7-7\--------7-7\----------|
E|----0-----------0--0-------3h5-0----|

Pause

G|--------------------7--------------------------------------7-|
D|------------------9---9--------------------------------7-9---|
A|------7-7\--------------10-7-9-5---------7-7\----7--9--------|
E|0-----------0--0-------------------0----------0--------------|

G|------------------------------------------------------------------|
D|------------------------------------------11----------------7-----|
A|------7-7\--------7--10----------7-7\----------12p10---9h10---7---|
E|0-----------0--7-----------0-----------0------------12------------|

Verse:
G|---------------------------------------------------|
D|---------------------------------------------2---0-|
A|------7-7\--------7-7\--------7-7\-------5-2---0---|
E|0-----------0--0--------0-----------0-2-3----------|

G|-------------------------------------------------|
D|-------------------------------------------------|
A|------7-7\--------7-7\---------------------------|
E|0-----------0--0----------0----------------------|

G|---------------------------|  |----------------------------|
D|---------------------------|  |----------------------2---0-|
A|------7-7\--------7-7\-----|x3|-------7-7\-------5-2---0---|
E|0-----------0--0-------3h5-|  |0-----------0-2-3-----------|

G|------------------------------------------------------7-----------|
D|-------------------------7--------------------------9---10-9----9-|
A|------7-7\--------7-7\-7---10p9-7-------7-7\-----------------10---|
E|0-----------0--0------------------0-----------0--0----------------|

G|--------------------------------------------------------------------------|
D|-------------------------7--------------------------------7--9/11--9------|
A|------7-7\--------7-7\-7---10p9-7-------7-7\--------4--7--------------10--|
E|0-----------0--0------------------0-----------0--2------------------------|

G|--------------9--7-----7h9------------------------------------|
D|------------------9--9-----7----------------------------------|
A|------7-7\---------10-----------7-----------------------------|
E|0-----------0-------------------------------------------------|

G|----------------------------------------------------|
D|----------------------------------------------------|
A|------7-7\--------7-7\------------------------------|
E|0-----------0--0-------3h5-0------------------------|

Verse:
G|----------------------------------9----------------------------|
D|------------------11h12--9p7-9h11-----------------------5------|
A|------7-7\----------------------------------7-7\--6--------7---|
E|0-----------0--0----------------------0--------------8---------|

G|----------------------------------------------------|
D|----------------------------------------------------|
A|------7-7\--------7-7\------------7-7\--------------|
E|0-----------0--0-------3h5--0-----------0--3--5--3--|

G|--------------------------7-|  |-------------------------------|
D|-----------------------7h9--|  |---------------------2-----0-2-|
A|------7-7\--------7-7\------|x2|------7-7\-------0-2---4-2-----|
E|0-----------0--0------------|  |0-----------0------------------|

G|---------------------------|  |---------------------------|
D|---------------------------|  |---------------------------|
A|------7-7\--------5--3--7--|x3|------7-7\--------5--7-----|
E|0-----------0--3-----------|  |0-----------0--3-----------|

I know it's not perfect, but it's good enough compared to nothing. Hope it helps you :)

            
            
Suggest correction
Creating personal tab
Creating personal tab
You can edit any tab online and save it as your Personal.

You can edit, replace or remove any tab part or add personal notes – all changes will be seen only by you.

Personal tabs can be accessed anytime from any device, even offline.
Learn more »
comments
print report bad tab
1 comment total.
0 reply
likesmoke 31 Nov 25, 2010 08:36 AM

Good tab. You're right it's much better than no tab at all. Thanks for all your help!

guest
You may want to rate the tab now too:
select rating
Wanna post a correction for this tab? Suggest correction