Oops, an error
Loading. Please wait.

Desert Dance Tab

755 views 3 this week
no commentswrite comment
1 2 3 4 5
please rate
add to favorites
launch autoscroll
font size
0
reset
how to read this tab
guitar tuner
Autoscroll
slow
fast
+/-
esc
set tempo
stop
Help us to improve Ultimate-Guitar.com Take our survey!
×
This is a great song by the legendary queensryche!

rythym 1: clean

E---------------------------------------------------------------------------|
B---------------------------------------------------------------------------|
G---------------------------------------------------------------------------|
D---5--5--8----6--6--9----5--5--8----6--6--9---9--9--9/11----repeat---------|
A---6--6--6----6--6--6----6--6--6----6--6--6---6--6--6----------------------|
E---------------------------------------------------------------------------|

lead: drive

E---------------------------------------------------------------------------|
B--14-14~--12h14p12-11h12p11-9-11-11/12~--11h12p11-9h11p9-8-9-9/11----------|
G---------------------------------------------------------------------------|
D---------------------------------------------------------------------------|
A---------------------------------------------------------------------------|
E---------------------------------------------------------------------------|

E---------------------------------------------------------------------------|
B--9h11p9-8--9--9--9~-------------------------------------------------------|
G---------------------------------------------------------------------------|
D---------------------------------------------------------------------------|
A---------------------------------------------------------------------------|
E---------------------------------------------------------------------------|

rythym 2: drive/dist

E---------------------------------------------------------------------------|
B---------------------------------------------------------------------------|
G---------------------------------------------------------------------------|
D---5--5--8----6--6--9----5--5--8----6--6--9---9--9--9/11----repeat---------|
A---6--6--6----6--6--6----6--6--6----6--6--6---6--6--6----------------------|
E---------------------------------------------------------------------------|

E---------------------------------------------------------------------------|
B---------------------------------------------------------------------------|
G-----end with--------------------------------------------------------------|
D--------------------6---6-----2--------------------------------------------|
A--------------------6---6-----2--------------------------------------------|
E--------------------4---4-----0--------------------------------------------|

no verse or chorus: sorry!

next all i have michael wiltons solo: drive

E---------------------------------------------------------------------------|
B--14-14~--12h14p12-11h12p11-9-11-11/12~--11h12p11-9h11p9-8-9-9/11----------|
G---------------------------------------------------------------------------|
D---------------------------------------------------------------------------|
A---------------------------------------------------------------------------|
E---------------------------------------------------------------------------|

E----------------------------------------------16-16-15~---15h16p15---------|
B--9h11p9-8--9--9--9~----14-14~---12h14p12-11-----------------------16-16---|
G---------------------------------------------------------------------------|
D---------------------------------------------------------------------------|
A---------------------------------------------------------------------------|
E---------------------------------------------------------------------------|

E---------------------------------------------------------------------------|
B--14~--14h16p14--11-11h12p11--11h12p11-------------------------------------|
G---------------------------------------13~~~-------------------------------|
D---------------------------------------------------------------------------|
A---------------------------------------------------------------------------|
E---------------------------------------------------------------------------|

thats all people! sorry about not tabbing the full thing!!!
Suggest correction
Give kudos to tab author, rate the tab!
1 2 3 4 5
comments
print report bad tab
guest
You may want to rate the tab now too:
select rating
Please do not post tabs as comments. Select "correction" instead!