Oops, an error
Loading. Please wait.

Empire Tab

version 1
version 1

Solo

Whole song

Interactive

3,326 views 3 this week
no commentswrite comment
1 2 3 4 5
accurate
x 4
add to favorites
launch autoscroll
font size
0
reset
how to read this tab
guitar tuner
Autoscroll
slow
fast
+/-
esc
set tempo
stop
Help us to improve Ultimate-Guitar.com Take our survey!
×
This is preceded by the rant on government spending. Listen to the song for timing. I 
this is about 95% accurate.

e|-------------20~-20-17-20s22-22-20p17----17----------------------------|
B|22~-22s20-17--------------------------20----20-17-20-17----17----------|
G|--------------------------------------------------------19----19-17----|
D|--------------------------------------------------------------------19-|
A|-----------------------------------------------------------------------|
E|-----------------------------------------------------------------------|

e|------------------------------------------------------------------------|
B|------17-------------------17h18p17----17-------------------------------|
G|---17----17-19s21-19p17h19----------19----19-17-19-17-16-17-16----16----|
D|19-------------------------------------------------------------19----19-|
A|------------------------------------------------------------------------|
E|------------------------------------------------------------------------|

e|------------------------------------------------------------------------|
B|---------------------------------------------------18-17-17-------------|
G|------19-17-15-19-17-15-19-17-15-19-17-15-19-17-15----------19-17-19-12-|
D|17-19-------------------------------------------------------------------|
A|------------------------------------------------------------------------|
E|------------------------------------------------------------------------|

e|------------------------------------------------------------------------|
B|--------------------------------------15-16-15-20-20s18-15-18s20-16-15--|
G|10-10-9-9-7s9-10-20-19-19-17-15-17-17-----------------------------------|
D|------------------------------------------------------------------------|
A|------------------------------------------------------------------------|
E|------------------------------------------------------------------------|

e|20-18p15----15--------------------------|
B|---------18----18-16-15----15-16-15-18~-|
G|------------------------17--------------|
D|----------------------------------------|
A|----------------------------------------|
E|----------------------------------------|
Suggest correction
comments
print report bad tab
guest
You may want to rate the tab now too:
select rating
Please do not post tabs as comments. Select "correction" instead!