Oops, an error
Loading. Please wait.

Queen Of The Reich Tab

version 1
version 1

Solo

Whole song

Interactive

1,539 views 3 this week
no commentswrite comment
1 2 3 4 5
please rate
add to favorites
launch autoscroll
font size
0
reset
how to read this tab
guitar tuner
Autoscroll
slow
fast
+/-
esc
set tempo
stop
Help us to improve Ultimate-Guitar.com Take our survey!
×
Difficulty
advanced
Most tabs that I have seen for this solo have been wrong so this shold be the right way
play it....I'm psoitive it is atleast 99% coorect


(Harmonized part)
e-----------------------------------------------10------------|
b--------------10----------------12---------------------------|
g--9-11-12-9-11----9-11-12--9-11----9-11-12-9-11--------------|
d-------------------------------------------------------------|
a-------------------------------------------------------------|
e-------------------------------------------------------------|

|-------10--10-------------10/12-12b12b12b-10/12-10-------------|
|--10/12--12--12-10---------------------------------12----------|
|-------------------12-11~--------------------------------------|
|---------------------------------------------------------------|
|---------------------------------------------------------------|
|---------------------------------------------------------------|


e----14/15--17-15---15-----------------------------------------------|
b-----------------17--17-15-17-15--15--------------------------------|
g--------------------------------16--16-14-16-14---14----------------|
d------------------------------------------------16--17-16-14~-------|
a--------------------------------------------------------------------|
e--------------------------------------------------------------------|

e-------------------------------------------------------------------------|
b-------------------------------------------------------------------------|
g-9-11-12-11-9---x4-11-12-14-12-11--x4--12-14-12-14-12-11-x4-11~----------|
d-------------12------------------14--------------------------------------|
a-------------------------------------------------------------------------|
e-------------------------------------------------------------------------|

(guitar solo: Wilton)
e--------------------------------------------------------|
b--------------------------------------------------------|
g-------------2-------4~---------------------------------|
d--2/4/5-2-4-5--5-4-2------------------------------------|
a--------------------------------------------------------|
e--------------------------------------------------------|
W/Whammy bar on this part
e----------------------------------------------------------------|
b--10/12-13-13b(13)-13b(13)-13-12-10-----------------------------|
g------------------------------------12--------------------------|
d----------------------------------------------------------------|
a----------------------------------------------------------------|
e----------------------------------------------------------------|

e----------------------------------------------------|
b----------------------------------------------------|
g--------------12-11-9-11-12-11-9---X4---------------|
d---------------------------------12---11~-----------|
a--3-5-7-10-9-5--------------------------------------|
e----------------------------------------------------|

e--------------------------------------------------------------------|
b-------------14-----------------------------------------------------|
g--9-99-12/9--14b-14b-11----14-12-11-12-11-9-11-9-7-7776-679-679-----|
d--------------------------------------------------------------------|
a--------------------------------------------------------------------|
e--------------------------------------------------------------------|
(end solo)
e-----------------------------------------------------------------|
b-----------------12/14b14b14b------------------------------------|
g-----------------12/14b14b14b------------------------------------|
d-----------------------------------------------------------------|
a--7-9-10-12-12~~~------------------------------------------------|
e-----------------------------------------------------------------|

Well,
there it is....my version of the solo....like I said, I think it to be about 99% correct
not 100%...Have fun with this.

If you have any questions and/or comments regarding my tabs then just e-mail me
at theonewithskill@hotmail.com

enjoy
=)
Suggest correction
Give kudos to tab author, rate the tab!
1 2 3 4 5
comments
print report bad tab
guest
You may want to rate the tab now too:
select rating
Wanna post a correction for this tab? Suggest correction