Oops, an error
Loading. Please wait.

Ive Had It With You Tab

101 views 1 this week
no commentswrite comment
1 2 3 4 5
please rate
add to favorites
launch autoscroll
font size
0
reset
how to read this tab
guitar tuner
Autoscroll
slow
fast
+/-
esc
set tempo
stop
Help us to improve Ultimate-Guitar.com Take our survey!
×
Author
I've Had It With You
The Queers
Today EP

Standard Tuning



Verse
e-------------------------------------------|
B-------------------------------------------|
G------7-7-------7-7-------7-7-------7-7----|
D-7-7--7-7--7-7--7-7--7-7--7-7--7-7--7-7----|
A-7-7--5-5--7-7--5-5--7-7--5-5--7-7--5-7----|
E-5-5-------5-5-------5-5-------5-5---------|

e-------------------------------------------|
B-------------------------------------------|
G------7-7-------7-7-------7-7--9-9-9-9-----|
D-7-7--7-7--7-7--7-7--7-7--7-7--9-9-9-9-----|
A-7-7--5-5--7-7--5-5--7-7--5-5--7-7-7-7-----|
E-5-5-------5-5-------5-5-------------------|

e-------------------------------------------|
B-------------------------------------------|
G------7-7-------7-7-------7-7--9-9-9-9-----|
D-7-7--7-7--7-7--7-7--7-7--7-7--9-9-9-9-----|
A-7-7--5-5--7-7--5-5--7-7--5-5--7-7-7-7-----|
E-5-5-------5-5-------5-5-------------------|

Chorus
e---------------------------------------------------------------------|
B---------------------------------------------------------------------|
G----------7-7-7-7-----------7-7-7-7-----------7-7-7-7--9-9-9-9-------|
D-7-7-7-7--7-7-7-7--7-7-7-7--7-7-7-7--7-7-7-7--7-7-7-7--9-9-9-9-------|
A-7-7-7-7--5-5-5-5--7-7-7-7--5-5-5-5--7-7-7-7--5-5-5-5--7-7-7-7-------|
E-5-5-5-5-----------5-5-5-5-----------5-5-5-5-------------------------|

The Second Chorus Is Longer Than The First.  It's The Same Chords Though.
The Song Ends On
e---
B---
G---
D-7-
A-7-
E-5-


And There You Go.  Simple And Catchy, Like All Queers Songs.
Suggest correction
Give kudos to tab author, rate the tab!
1 2 3 4 5
comments
print report bad tab
guest
You may want to rate the tab now too:
select rating
Please do not post tabs as comments. Select "correction" instead!