Oops, an error
Loading. Please wait.

Follow Me Tab

55 views 1 this week
no commentswrite comment
1 2 3 4 5
3 more votes to show rating
add to favorites
launch autoscroll
font size
0
reset
how to read this tab
guitar tuner
×
Best way to learn
"Follow Me"
Autoscroll
slow
fast
+/-
esc
set tempo
stop
Author
Difficulty
  follow
intermediate
About this tab version
No one has this song up yet. Was this info helpful? Yes No
Follow Me Tab

Video of me playing for reference: https://www.youtube.com/watch?v=LwhybhVpkBo


[Intro]

e|---------------------------------------------------------------|
B|---------------------------------------------------------------|
G|---------------------------------------------------------------|
D|-0------4------5------2------2-0-------------------------------|
A|-1------5------7------3----------------------------------------|
E|-2-(x8)-5-(x8)-7-(x8)-3-(x6)-----------------------------------|(x2)


[Verse]

(Hold each chord for roughly 4 seconds besides the last one)
e|---------------------------------------------------------------|
B|---------------------------------------------------------------|
G|---------------------------------------------------------------|
D|-0----4----5----2----2-0---------------------------------------|
A|-1----5----7----3----------------------------------------------|
E|-2----5----7----3----------------------------------------------|

e|---------------------------------------------------------------|
B|---------------------------------------------------------------|
G|---------------------------------------------------------------|
D|-0----4----5----2------2-0-------------------------------------|
A|-1----5----7----3----------------------------------------------|
E|-2----5----7----3-(x6)-----------------------------------------|


[Pre-Chorus]

e|---------------------------------------------------------------|
B|---------------------------------------------------------------|
G|----------------------2----------------------------------------|
D|-2------2------0------1----------------------------------------|
A|-2------3------2------2----------------------------------------|
E|-0-(x8)-3-(x8)-3-(x8)-0-(x8)-----------------------------------|(x2)


[Chorus]

(Hold each of these for about 4 seconds too besides the repeating ones)
e|-------------------------------------------1-------------------|
B|-------------------------------------------0-------------------|
G|-----------2------------------------2------2-------------------|
D|-2----0----1----5-5--4-4--2----0----1------1-------------------|
A|-3----2----2----7-7--5-5--3----2----2------2-------------------|
E|-3----3----0----7-7--5-5--3----3----0-(x8)-0-(x5)--------------|
                       

[Intro]

e|---------------------------------------------------------------|
B|---------------------------------------------------------------|
G|---------------------------------------------------------------|
D|-0------4------5------2------2-0-------------------------------|
A|-1------5------7------3----------------------------------------|
E|-2-(x8)-5-(x8)-7-(x8)-3-(x6)-----------------------------------|(x2)


[Verse]

(Hold each chord for roughly 4 seconds besides the last one)
e|---------------------------------------------------------------|
B|---------------------------------------------------------------|
G|---------------------------------------------------------------|
D|-0----4----5----2------2-0-------------------------------------|
A|-1----5----7----3----------------------------------------------|
E|-2----5----7----3-(x6)-----------------------------------------|


[Pre-Chorus]

e|---------------------------------------------------------------|
B|---------------------------------------------------------------|
G|----------------------2----------------------------------------|
D|-2------2------0------1----------------------------------------|
A|-2------3------2------2----------------------------------------|
E|-0-(x8)-3-(x8)-3-(x8)-0-(x8)-----------------------------------|(x2)


[Chorus]

(This time he strums each chord a few times, but I’m sure you can figure out the rhythm
since it’s these same chords)
e|-------------------------------------------1-------------------|
B|-------------------------------------------0-------------------|
G|-----------2------------------------2------2-------------------|
D|-2----0----1----5-5--4-4--2----0----1------1-------------------|
A|-3----2----2----7-7--5-5--3----2----2------2-------------------|
E|-3----3----0----7-7--5-5--3----3----0-(x8)-0-(x5)--------------|


[Bridge]

e|---------------------------------------------------------------|
B|---------------------------------------------------------------|
G|---------------------------------------------------------------|
D|-0--4---9--4---9--4--0-----------------------------------------|
A|-2--5--10--5--10--5--2-----------------------------------------|
E|-3--5--10--5--10--5--3-----------------------------------------|

Bridge continued
e|---------------------------------------------------------------|
B|---------------------------------------------------------------|
G|---------------------------------------------------------------|
D|-4-4--4--4-2---------------------------------------------------|
A|-5-5--5--5-3---------------------------------------------------|
E|-5-5--5--5-2---------------------------------------------------|
 

[Pre-Chorus]

e|---------------------------------------------------------------|
B|---------------------------------------------------------------|
G|-2-------------------------------------------------------------|
D|-1-------------------------------------------------------------|
A|-2-------------------------------------------------------------|
E|-0-(x8)--------------------------------------------------------|(x2)


[Chorus]

(He strums it different again so listen to figure it out, hold the last note)
e|---------------------------------------------------------------|
B|---------------------------------------------------------------|
G|-----------2------------------------2--------------------------|
D|-2----0----1----5-5--4-4--2----0----1----5-5--4-4--2-----------|
A|-3----2----2----7-7--5-5--3----2----2----7-7--5-5--3-----------|
E|-3----3----0----7-7--5-5--3----3----0----7-7--5-5--3-----------|


[Outro]

e|---------------------------------------------------------------|
B|---------0-------0---------------------------------------------|
G|-------0---0-----0---------------------------------------------|
D|-----2-------2---2---------------------------------------------|
A|---3-----------3-3---------------------------------------------|
E|-3---------------3---------------------------------------------|

e|---------------------------------------------------------------|
B|---------------------------------------------------------------|
G|---------------------------------------------------------------|
D|-0------4------5-5--4-4--2--0-2-0--------0---------------------|
A|-2------5------7-7--5-5--3--------3-2-0--2---------------------|
E|-3-(x8)-5-(x8)-7-7--5-5--3---------------3---------------------|
Suggest correction
Give kudos to tab author, rate the tab!
1 2 3 4 5
comments
print report bad tab
guest
You may want to rate the tab now too:
select rating
Wanna post a correction for this tab? Suggest correction