Oops, an error
Loading. Please wait.

Sink chords

100 views 3 this week
no commentswrite comment
1 2 3 4 5
3 more votes to show rating
add to favorites
×
Save as Personal and add changes to this tab that will be seen only by you. Learn more ›
×
You can save this tab as Personal to edit and correct it or add notes. All changes will be seen only by you. Learn more »
launch autoscroll
font size
0
reset
transpose
0
reset
display chords
guitar tuner
edit
Autoscroll
slow
fast
+/-
esc
set tempo
stop
Strumming
There is no strumming pattern for this song yet. and get +5 IQ
[Verse 1]

              Dm              C           G
Bring me your light and i'll trade you my dark
              Dm        C         G
Secrets and lies, fabrications of heart
              Dm         C          G
we feel so small when we look to the stars
              Dm         C             G
we pick out planets, we'd like to live on


[Pre-Chorus]

Em               C
Twinkle twinkle, little star
G             F
how I wonder, how much you cost
         Em        C
'cause I need, to, go, now.
G      F
I need out. 


[Chorus]
          C                      G
I will be king, and you'll be my queen
             F     B           Em
we'll lead a life, poorer than poorer can be
          C              G
but we'll smile, till we die
            F             B             Em
safe in the knowledge the world that we left was a lie.


[Verse 2]

         Dm            C           G
It's not fair that the rich get to leave
            Dm           C      G
leaving the rest without family trees
           Dm            C          G
all of our friends stood alone on a hill
              Dm          C        G
standing like statues immortal but still


[Pre-Chorus]

Em               C
Twinkle twinkle, little star
G             F
how I wonder, how much you cost
         Em        C
'cause I need, to, go, now.
G      F
I need out. 


[Chorus]

          C                      G
I will be king, and you'll be my queen
             F     B           Em
we'll lead a life, poorer than poorer can be
          C              G
but we'll smile, till we die
            F             B             Em
safe in the knowledge the world that we left was a lie.


[Bridge]

               Dm    C    G
Sink into dreams
               Dm    C    G
Sink into dreams
               Dm    C    G
Sink into dreams


[Chorus]

          C                      G
I will be king, and you'll be my queen
             F     B           Em
we'll lead a life, poorer than poorer can be
          C              G
but we'll smile, till we die
            F             B             Em
safe in the knowledge the world that we left was a lie.


[Bridge]

Em
Sink into dreams
Em
Sink into dreams
Em
Sink into dreams



Chords:

These aren't the correct names for all the chords but this is what i'll call them;

    G      C      Dm     B      F#     Em 
e|-----------------------3---------------------|
B|---------------------------------------------|
G|-----------------------2------2--------------|
D|---------2------3------1--------------2------|
A|--2------3------5------2--------------2------|
E|--3------3------5-------------2--------------|


Chord Progressions:

[Intro & Verses]

         G     Dm    C    G
e|---------------------------------------------|
B|---------------------------------------------|
G|---------------------------------------------|
D|-------------3-----2-------------------------|
A|-0--2--3-----5-----3----3--------------------|
E|-3--3--3-----5-----3----3--------------------|


[Pre-Chorus]

   Em G  C  F
e|---------------------------------------------|
B|---------------------------------------------|
G|----------2----------------------------------|
D|-2--2----------------------------------------|
A|-2--3--2-------------------------------------|
E|----3--3--2----------------------------------|


[Chorus]

   C  G     Dm  B   Em
e|---------------------------------------------|
B|---------------------------------------------|
G|--------------2------------------------------|
D|-2--------3---1---2--------------------------|
A|-3--2-----5---2---2--------------------------|
E|-3--3-----5----------------------------------|

            
            
Suggest correction
Creating personal tab
Creating personal tab
You can edit any tab online and save it as your Personal.

You can edit, replace or remove any tab part or add personal notes – all changes will be seen only by you.

Personal tabs can be accessed anytime from any device, even offline.
Learn more »
Give kudos to tab author, rate the tab!
1 2 3 4 5
comments
print report bad tab
guest
You may want to rate the tab now too:
select rating
Wanna post a correction for this tab? Suggest correction