Oops, an error
Loading. Please wait.

Cum On Feel The Noize Tab

version 1
version 1

Whole song

Interactive

Video

67,620 views 93 this week
13 commentsread comments
1 2 3 4 5
x 19
add to favorites
launch autoscroll
font size
0
reset
how to read this tab
guitar tuner
Autoscroll
slow
fast
+/-
esc
set tempo
stop
Help us to improve Ultimate-Guitar.com Take our survey!
×
Author
Tabbers playing skills
advanced ++
Cum On Feel The Noize-Quiet Riot
Metal Health

E A D G B E

Intro: Drums

...wild, wild, wild...

e-----------------------------------------------------------------|
b-----------------------------------------------------------------|
g-----------------------------------------------------------------|
d-----------------------------------------------------------------|
a-----------------------------------------------------------------|
e---------7/19\---------------------------------------------------|

[Verse]

pm
e-----------------------------------------------------------------|
b-----------------------------------------------------------------|
g-----------------4-4-4-4-4-4-4-4---------------------------------|
d-5-5-5-5-5-5-5-5-4-4-4-4-4-4-4-4-2-2-2-2-2-2-2-2-2-2-2-2-2-2-2-2-|
a-5-5-5-5-5-5-5-5-2-2-2-2-2-2-2-2-2-2-2-2-2-2-2-2-2-2-2-2-2-2-2-2-|
e-3-3-3-3-3-3-3-3-----------------0-0-0-0-0-0-0-0-0-0-0-0-0-0-0-0-|

e--------3-------------------------------------3------------------|
b--------3-----------3-------------------------3----------3-------|
g-2------0-----------2------------2------------0----------2-------|
d-2------0-----------0------------2------------0----------0-------|
a-0------x------------------------0------------x------------------|
e--------3-------------------------------------3------------------|

...any more, oh, no...

e-----------------------------------------------------------------|
b-----------------------------------------------------------------|
g-9--9--9--9--9--9--9--9--7--7--7--7--7--7--7--7------------------|
d-9--9--9--9--9--9--9--9--7--7--7--7--7--7--7--7------------------|
a-7--7--7--7--7--7--7--7--5--5--5--5--5--5--5--5------------------|
e-----------------------------------------------------------------|

[Chorus]

e-----------------------------------------------------------------|
b-----------3---------------------------------3-------------------|
g-0---------2---------------------0-----------2-------------------|
d-0---------0-------2-------------0-----------0--------2----------|
a-x---------x-------2-------------x-----------x--------2----------|
e-3---------2-------0-------------3-----------2--------0----------|

e--------3-------------------------------------3------------------|
b--------3-----------3-------------------------3----------3-------|
g-2------0-----------2------------2------------0----------2-------|
d-2------0-----------0------------2------------0----------0-------|
a-0------x------------------------0------------x------------------|
e--------3-------------------------------------3------------------|

e-----------------------------------------------------------------|
b-----------3---------------------------------3-------------------|
g-0---------2---------------------0-----------2-------------------|
d-0---------0-------2-------------0-----------0--------2----------|
a-x---------x-------2-------------x-----------x--------2----------|
e-3---------2-------0-------------3-----------2--------0----------|

e-----------------------------------------------------------------|
b---------------------------------3-3-3-3-3-3-3-3-3-3-3-3-3-3-3-3-|
g-5-5-5-5-4-4-4-4-2-2-2-2-0-0-0-0-2-2-2-2-2-2-2-2-2-2-2-2-2-2-2-2-|
d-5-5-5-5-4-4-4-4-2-2-2-2-0-0-0-0-0-0-0-0-0-0-0-0-0-0-0-0-0-0-0-0-|
a-3-3-3-3-2-2-2-2-0-0-0-0-x-x-x-x---------------------------------|
e-------------------------3-3-3-3---------------------------------|

[Solo 1]

e-----------------------------------------------------------------|
b-----------------------------------------------------------------|
g----------------------------------12-14-12----------------12-14--|
d----------------------12-14-12-14----------14-12-14-12-14--------|
a----------12-14-12-14--------------------------------------------|
e-15-12-15--------------------------------------------------------|

e-------------------12-15-12----12--15b~~~~-15--14-15-14h15p14----|
b-------12-15-12-15----------14--------------------------------17-|
g-12-14-----------------------------------------------------------|
d-----------------------------------------------------------------|
a-----------------------------------------------------------------|
e-----------------------------------------------------------------|

e-14--------------------------------------------------------------|
b----17br-15--12-13-15-13-12-13----12----12~----------------12-13-|
g-------------------------------------14-----14-12-11-12-14-------|
d-----------------------------------------------------------------|
a-----------------------------------------------------------------|
e-----------------------------------------------------------------|

e-----------------------------------------------15b--15b---15br---|
b-15-13-12-13---12----12--------------------12--------------------|
g------------------14------14-12b!!!-12~~~~-----------------------|
d-----------------------------------------------------------------|
a-----------------------------------------------------------------|
e-----------------------------------------------------------------|

e-15br-14-15---17-15-14---------15b--15b--15br-14-15--17-15-14----|
b-----------------------15---12--------------------------------15-|
g-----------------------------------------------------------------|
d-----------------------------------------------------------------|
a-----------------------------------------------------------------|
e-----------------------------------------------------------------|

e----17b---17b-----17br-15-17-19-17~~-15--19-15-15-15-17-15-15-15-|
b-15--------------------------------------------------------------|
g-----------------------------------------------------------------|
d-----------------------------------------------------------------|
a-----------------------------------------------------------------|
e-----------------------------------------------------------------|

e-19-15-15-15-17-15-14-15-17-14-15-14-12h15p12----12--------------|
b----------------------------------------------14----15b~~~~~-----|
g-----------------------------------------------------------------|
d-----------------------------------------------------------------|
a-----------------------------------------------------------------|
e-----------------------------------------------------------------|

e-----------------------------------------------------------------|
b-----------------------------------------------------------------|
g----------------------------------12-14-12----------------12-14--|
d----------------------12-14-12-14----------14-12-14-12-14--------|
a----------12-14-12-14--------------------------------------------|
e-15-12-15--------------------------------------------------------|

e-------------------12-15-12----12--15b~~~~-15-14h15p14h15--------|
b-------12-15-12-15----------14-----------------------------------|
g-12-14-----------------------------------------------------------|
d-----------------------------------------------------------------|
a-----------------------------------------------------------------|
e-----------------------------------------------------------------|

e-14h15p14p12-12-14-15-17-20--20b~~~~~~~~~~~----------------------|
b-----------------------------------------------------------------|
g-----------------------------------------------------------------|
d-----------------------------------------------------------------|
a-----------------------------------------------------------------|
e-----------------------------------------------------------------|

Random Licks over verse 3

e-----------------------------------------------------------------|
b--------------------------------------12-13-15-13-12-------------|
g----4-5-7--5h7p5p4-5~~~~~~~----\--/14----------------12----------|
d-/7--------------------------------------------------------------|
a-----------------------------------------------------------------|
e-----------------------------------------------------------------|

Chorus w/ no gtr

...wild wild wild...

e-----------------------------------------------------------------|
b-----------------------------------------------------------------|
g-5-----4-----2---------------5------4------2---------------------|
d-----------------------------------------------------------------|
a-----------------------------------------------------------------|
e-----------------------------------------------------------------|

Outro Guitar Solo:

e-----------------------------------------------------------------|
b--------/11-13-13-15-13-12-----------------------12-13-15-15b~~~-|
g---------------------------14-12~~~~~~-----12-14-----------------|
d---------------------------------------/14-----------------------|
a-----------------------------------------------------------------|
e-----------------------------------------------------------------|

e------------------------17b-17b------17br-15-17-15-14h17p14------|
b-15b~~~~~~-15br~~~~~~~\-------------------------------------17---|
g-----------------------------------------------------------------|
d-----------------------------------------------------------------|
a-----------------------------------------------------------------|
e-----------------------------------------------------------------|

Begin to fade

e-14-15--17p14h15p14-17p14h15p14-17p14h15p14----14----------------|
b--------------------------------------------17----17b~~~~rb15-17-|
g-----------------------------------------------------------------|
d-----------------------------------------------------------------|
a-----------------------------------------------------------------|
e-----------------------------------------------------------------|

e------------------------------------------------------------------|
b----------12h14b----12-----12h13p12----12-15b~~~-15-12h15p12---12-|
g-----------------14-----------------14----------------------14----|
d-12--14-----------------14----------------------------------------|
a------------------------------------------------------------------|
e------------------------------------------------------------------|

e-----------------------------------------------------------------|
b-----------------------------------------------------------------|
g-14brp12-14~~~-14-12-11--12-11----11-----------------------------|
d-------------------------------14-----14--14-12----12-14-12~~~~--|
a------------------------------------------------14---------------|
e-----------------------------------------------------------------|

e-----------------------------------------------------------------|
b-----15---------15-15---15-15-15----15\--------------------------|
g----------x-x-x-------x------------------------------------------|
d-----------------------------------------------------------------|
a-----------------------------------------------------------------|
e-----------------------------------------------------------------|

e-----------------------------------------------------------------|
b---15-----15-15----15-15-12-15----12-15-15-15b~~~~~~~~~~~~-------|
g----------------12-----------------------------------------------|
d-----------------------------------------------------------------|
a-----------------------------------------------------------------|
e-----------------------------------------------------------------|

e-----------------------------------------------------------------|
b----15-----15-15----15-15-15b~~~~-12-12-15-15-15\----------------|
g-----------------12----------------------------------------------|
d-----------------------------------------------------------------|
a-----------------------------------------------------------------|
e-----------------------------------------------------------------|

that is all

trevor jones
timmy91199@yahoo.ca


************************************

| /   Slide up
| \   Slide down
| x   Dead note
| h   Hammer-on
| p   Pull-off
| br  Bend release
| ~   Vibrato
| b   Bend

************************************
Suggest correction
comments
print report bad tab
13 comments total. Showing first comments. show 1 bad comment
+1 reply
Willkill 10 Apr 16, 2002 12:00 AM

perfect dude!

+1 reply
Priest_Fan_91 90 Nov 27, 2004 12:00 AM

Greater than great!

guest
You may want to rate the tab now too:
select rating
Wanna post a correction for this tab? Suggest correction