Oops, an error
Loading. Please wait.

Cum On Feel The Noize tab

version 2
version 2

Whole song

Interactive

Video

51,352 views 27 this week
12 commentsread comments
1 2 3 4 5
x 26
add to favorites
×
Save as Personal and add changes to this tab that will be seen only by you. Learn more ›
×
You can save this tab as Personal to edit and correct it or add notes. All changes will be seen only by you. Learn more »
launch autoscroll
font size
0
reset
how to read this tab
guitar tuner
backing track
0:00
0:00
edit
Autoscroll
slow
fast
+/-
esc
set tempo
stop
Author
CUM ON FEEL THE NOIZE
As recorded by Quiet Riot
(From the 1983 Album METAL HEALTH)

Words and Music by Holder, Lea
Arranged by Holder, Lea

Gtr I (E A D G B E) - 'Untitled'
Gtr II (E A D G B E) - 'Untitled'

 [Intro]
   Moderate Rock Q=138 (4/4)
   Gtr I
   Wx6
e|--------|
B|--------|
G|--------|
D|--------|
A|--------|
E|--------|

   W          Q  Q   Q  E E   W          W
e|----------|---------------|----------|------||
B|----------|---------------|----------|------||
G|----------|---------------|----------|------||
D|----------|---------------|----------|------||
A|----------|----4s=16s=4---|----------|------||
E|----------|----2s=14s=2---|----------|------||

[Verse 1, 2, 3]
                                        PM------------------------------|
     Q  E E E E E E   E E E E E E E E   E E E E E E E E   E E E E E E E E
e||-----------------|-----------------|-----------------|------------------|
B||o----------------|-----------------|-----------------|------------------|
G||-----------------|-4-4-------------|-----------------|------------------|
D||--5----5-5-5---5-|-4-4---4-4-4---4-|-----------------|------------------|
A||o-5----5-5-5---5-|-2-2---2-2-2---2-|-2-2---2-2-2---2-|-2-2---2-2-2---2--|
E||--3----3-3-3---3-|-----------------|-0-0---0-0-0---0-|-0-0---0-0-0---0--|

                    PM----|                    PM----|
   H    H      H    E E E E   H    H      H    E E E E
e|-----------|--------------|-----------|--------------|
B|-----------|-3------------|-----------|-3------------|
G|-2---------|-2----2-2-2-2-|-2---------|-2----2-2-2-2-|
D|-2----5----|-0----0-0-0-0-|-2----5----|-0----0-0-0-0-|
A|-0----5----|--------------|-0----5----|--------------|
E|------3----|--------------|------3----|--------------|

   PM------------------------------------------------------------------|
   E E E E E E E E   E E E E E E E E   E E E E E E E E   E E E E E E E E
e|-----------------|-----------------|-----------------|-----------------|
B|-----------------|-----------------|-----------------|-----------------|
G|-----------------|-----------------|-----------------|-----------------|
D|-----------------|-4-4-4-4-4-4-4-4-|-----------------|-----------------|
A|-5-5-5-5-5-5-5-5-|-2-2-2-2-2-2-2-2-|-2-2-2-2-2-2-2-2-|-2-2-2-2-2-2-2-2-|
E|-3-3-3-3-3-3-3-3-|-----------------|-0-0-0-0-0-0-0-0-|-0-0-0-0-0-0-0-0-|

                    PM----|                    PM----|
   H    H      H    E E E E   H    H      H    E E E E
e|-----------|--------------|-----------|--------------|
B|-----------|-3------------|-----------|-3------------|
G|-2---------|-2----2-2-2-2-|-2---------|-2----2-2-2-2-|
D|-2----5----|-0----0-0-0-0-|-2----5----|-0----0-0-0-0-|
A|-0----5----|--------------|-0----5----|--------------|
E|------3----|--------------|------3----|--------------|

                            To Coda
   E E E E E E E E   E E E E E E E E
e|-----------------|-----------------||
B|-----------------|-----------------||
G|-4-4-4-4-4-4-4-4-|-2-2-2-2-2-2-2-2-||
D|-2-2-2-2-2-2-2-2-|-0-0-0-0-0-0-0-0-||
A|-----------------|-----------------||
E|-----------------|-----------------||

[Chorus]
                    PM----|                    PM----|
   H    H      H    E E E E   H    H      H    E E E E
e|-----------|--------------|-----------|--------------|
B|-----------|--------------|-----------|--------------|
G|-----------|--------------|-----------|--------------|
D|-5---------|-2------------|-5---------|-2------------|
A|-5----5----|-2----2-2-2-2-|-5----5----|-2----2-2-2-2-|
E|-3----2----|-0----0-0-0-0-|-3----2----|-0----0-0-0-0-|

                    PM----|                    PM----|
   H    H      H    E E E E   H    H      H    E E E E
e|-----------|--------------|-----------|--------------|
B|-----------|-3------------|-----------|-3------------|
G|-2---------|-2----2-2-2-2-|-2---------|-2----2-2-2-2-|
D|-2----5----|-0----0-0-0-0-|-2----5----|-0----0-0-0-0-|
A|-0----5----|--------------|-0----5----|--------------|
E|------3----|--------------|------3----|--------------|

                    PM----|                    PM----|
   H    H      H    E E E E   H    H      H    E E E E
e|-----------|--------------|-----------|--------------|
B|-----------|--------------|-----------|--------------|
G|-----------|--------------|-----------|--------------|
D|-5---------|-2------------|-5---------|-2------------|
A|-5----5----|-2----2-2-2-2-|-5----5----|-2----2-2-2-2-|
E|-3----2----|-0----0-0-0-0-|-3----2----|-0----0-0-0-0-|

                                            1.
                           PM------------------------------|
   H    H      H    H      E E E E E E E E   E E E E E E E E
e|-----------|-----------|-----------------|------------------||
B|-----------|-----------|-----------------|-----------------o||
G|-5----4----|-2---------|-2-2-2-2-2-2-2-2-|-2-2-2-2-2-2-2-2--||
D|-5----4----|-2----5----|-0-0-0-0-0-0-0-0-|-0-0-0-0-0-0-0-0--||
A|-3----2----|-0----5----|-----------------|-----------------o||
E|-----------|------3----|-----------------|------------------||

  2.
   PM--------|
   E E E E E E Q     H    Q.   E   +W           H    Q.   E   +W
e|----------------||-------------|------------|-------------|-------------||
B|-------------3--||-------------|------------|-------------|-------------||
G|-2-2-2-2-2-2-2--||-------------|------------|-------------|-------------||
D|-0-0-0-0-0-0-0--||-5----5----2-|-(2)--------|-5----5----2-|-(2)---------||
A|----------------||-5----5----2-|-(2)--------|-5----5----2-|-(2)---------||
E|----------------||-3----2----0-|-(0)--------|-3----2----0-|-(0)---------||
 |
 | Gtr II
 | W                 W              W           W              Q    H.
e|----------------||-------------|------------|-------------|-------------||
B|----------------||-------------|------------|-------------|-------------||
G|----------------||-------------|------------|-------------|-------------||
D|----------------||-------------|------------|-------------|------14\----||
A|----------------||-------------|------------|-------------|-------------||
E|----------------||-------------|------------|-------------|-------------||

 [Guitar Solo]
    H                       H
e|-------------------------------------------------|
B|-------------------------------------------------|
G|--5-----------------------4----------------------|
D|--5-----------------------4----------------------|
A|--3-----------------------2----------------------|
E|-------------------------------------------------|
|
 |  S  S  S  S  S  S  S  S  S  S  S  S  S  S  S  S
e|-------------------------------------------------|
B|-------------------------------------------------|
G|----------------------------------12h14p12-------|
D|----------------------12h14p12h14----------14p12h|
A|----------12h14p12h14----------------------------|
E|-15p12h15----------------------------------------|

    H                       H
e|-------------------------------------------------|
B|-------------------------------------------------|
G|--2----------------------------------------------|
D|--2-----------------------5----------------------|
A|--0-----------------------5----------------------|
E|--------------------------3----------------------|
|
 |  S  S  S  S  S  S  S  S  S  S  S  S  S  S  S  S
e|----------------------------------12h15p12----12-|
B|----------------------12h15p12h15----------15----|
G|----------12h14p12h14----------------------------|
D|-14p12h14----------------------------------------|
A|-------------------------------------------------|
E|-------------------------------------------------|

    PM------------------------------------------------------------------|
    E      E     E  E  E  E     E     E    E  E          E  E   E  E  E  E
e|--------------------------------------|----------------------------------|
B|--------------------------------------|----------------------------------|
G|--2------2-----2--2--2--2-----2-----2-|--2--2----------2--2---2--2--2--2-|
D|--0------0-----0--0--0--0-----0-----0-|--0--0----------0--0---0--0--0--0-|
A|--------------------------------------|----------------------------------|
E|--------------------------------------|----------------------------------|
 |
 |         ~~~~~~~                                          ~~~~~~~
 |  E     +Q        E  E  S  S  S  S  E    E  S     +S   E  E  +Q     E  E
e|-15b17-(15)b17---15-14-15p14-15p14----|-14-------------------------------|
B|-----------------------------------17-|----17b19r(17)-17-15-(15)---12-13-|
G|--------------------------------------|----------------------------------|
D|--------------------------------------|----------------------------------|
A|--------------------------------------|----------------------------------|
E|--------------------------------------|----------------------------------|

                                              PM------|
    H            H               H            E  E  E  E
e|---------------------------|----------------------------|
B|---------------------------|----------------------------|
G|---------------------------|----------------------------|
D|--5------------------------|---2------------------------|
A|--5------------5-----------|---2------------2--2--2--2--|
E|--3------------2-----------|---0------------0--0--0--0--|
 |
 |           ~~~~~~~       ~~~~~~~~~
 |  E  E  E  E  +E   E  E  E    +E   E  E  E  E  E  E  E
e|---------------------------|----------------------------|
B|-15-13-12-13-(13)-12----12-|-(12)----------------12-13--|
G|---------------------14----|------14-12----12-14--------|
D|---------------------------|------------14--------------|
A|---------------------------|----------------------------|
E|---------------------------|----------------------------|

                                                  PM-----|
    H            H               H                E  E E  E
e|---------------------------|------------------------------|
B|---------------------------|------------------------------|
G|---------------------------|------------------------------|
D|--5------------------------|---2--------------------------|
A|--5------------5-----------|---2----------------2--2-2--2-|
E|--3------------2-----------|---0----------------0--0-0--0-|
 |
 |           ~~~~~~~       ~~~~~~~~~              ~~~~
 |  E  E  E  E  +E   E  E  E    +E   E  E  E     +Q.      E
e|---------------------------|------------------------------|
B|-15-13-12-13-(13)-12----12-|-(12)----------------------12-|
G|---------------------14----|------14-12-12b14r(12)--------|
D|---------------------------|------------------------------|
A|---------------------------|------------------------------|
E|---------------------------|------------------------------|

                                                         PM-----|
    H             H                      H               E  E E  E
e|-----------------------------------|-----------------------------|
B|-----------------------------------|---3-------------------------|
G|--2--------------------------------|---2---------------2--2-2--2-|
D|--2-------------5------------------|---0---------------0--0-0--0-|
A|--0-------------5------------------|-----------------------------|
E|----------------3------------------|-----------------------------|
 |
 |                                                       ~~~
 |  Q      Q      E     +E   E  E       +E   E     E  E  Q.      E
e|-15b17--15b17--15b17r(15)-14h15b17r|=(15)-15b17-15p14------------|
B|-----------------------------------|------------------15------12-|
G|-----------------------------------|-----------------------------|
D|-----------------------------------|-----------------------------|
A|-----------------------------------|-----------------------------|
E|-----------------------------------|-----------------------------|

                                                         PM-----|
    H             H                      H               E  E E  E
e|-----------------------------------|-----------------------------|
B|-----------------------------------|---3-------------------------|
G|--2--------------------------------|---2---------------2--2-2--2-|
D|--2-------------5------------------|---0---------------0--0-0--0-|
A|--0-------------5------------------|-----------------------------|
E|----------------3------------------|-----------------------------|
|
 |                                                       ~~~
 |  Q      Q      E     +E   E  E       +E   E     E  E  Q.      E
e|-15b17--15b17--15b17r(15)-14h15b17r|=(15)-15b17-15p14------------|
B|-----------------------------------|------------------15------15-|
G|-----------------------------------|-----------------------------|
D|-----------------------------------|-----------------------------|
A|-----------------------------------|-----------------------------|
E|-----------------------------------|-----------------------------|

                                                  PM-------|
    H              H              H               E    E E  E
e|----------------------------|-------------------------------|
B|----------------------------|-------------------------------|
G|----------------------------|-------------------------------|
D|--5-------------------------|---2---------------------------|
A|--5--------------5----------|---2---------------2----2-2--2-|
E|--3--------------2----------|---0---------------0----0-0--0-|
|
 |                 ~~~~                           ~~~~~
 |  Q.      E     +Q.    E       +E   E  E  E     Q.        E
e|-17b19---17b19r(17)---17b19r|=(17)-15-17-17b19-17b19-----15-|
B|----------------------------|-------------------------------|
G|----------------------------|-------------------------------|
D|----------------------------|-------------------------------|
A|----------------------------|-------------------------------|
E|----------------------------|-------------------------------|

    H                       H
e|-------------------------------------------------|
B|-------------------------------------------------|
G|-------------------------------------------------|
D|--5----------------------------------------------|
A|--5-----------------------5----------------------|
E|--3-----------------------2----------------------|
|
 |     PM---|      PM---|      PM---------------|
 |  S  S  S  S  S  S  S  S  S  S  S  S  S  S  S  S
e|-19-15-15-15-17-15-15-15-19-15-15-15-17-15-14-14-|
B|-------------------------------------------------|
G|-------------------------------------------------|
D|-------------------------------------------------|
A|-------------------------------------------------|
E|-------------------------------------------------|

                            PM---------------|
    H                       E  E          E    E
e|------------------------------------------------|
B|------------------------------------------------|
G|------------------------------------------------|
D|--2---------------------------------------------|
A|--2-----------------------2--2----------2----2--|
E|--0-----------------------0--0----------0----0--|
|
 |  S  S  S  S  S  S  S  S  E  S  S      +E   +E
e|-17p14-15p14----15------------------------------|
B|-------------17----17p15h17-15-17b19==(17)r(17)-|
G|------------------------------------------------|
D|------------------------------------------------|
A|------------------------------------------------|
E|------------------------------------------------|

    H                       H
e|-------------------------------------------------|
B|-------------------------------------------------|
G|--5-----------------------4----------------------|
D|--5-----------------------4----------------------|
A|--3-----------------------2----------------------|
E|-------------------------------------------------|
|
 |  S  S  S  S  S  S  S  S  S  S  S  S  S  S  S  S
e|-------------------------------------------------|
B|-------------------------------------------------|
G|----------------------------------12h14p12-------|
D|----------------------12h14p12h14----------14p12h|
A|----------12h14p12h14----------------------------|
E|-15p12h15----------------------------------------|

    H                       H
e|-------------------------------------------------|
B|-------------------------------------------------|
G|--2----------------------------------------------|
D|--2-----------------------5----------------------|
A|--0-----------------------5----------------------|
E|--------------------------3----------------------|
|
 |  S  S  S  S  S  S  S  S  S  S  S  S  S  S  S  S
e|----------------------------------12h15p12----12-|
B|----------------------12h15p12h15----------15----|
G|----------12h14p12h14----------------------------|
D|-14p12h14----------------------------------------|
A|-------------------------------------------------|
E|-------------------------------------------------|

    PM---------------------------------------------------------------------|
    E      E  E E  E     E     E     E       E    E     E      E    E  E E E
e|----------------------------------------|----------------------------------||
B|----------------------------------------|----------------------------------||
G|--2------2--2-2--2-----2-----2-----2----|--2----2-----2------2----2--2-2-2-||
D|--0------0--0-0--0-----0-----0-----0----|--0----0-----0------0----0--0-0-0-||
A|----------------------------------------|----------------------------------||
E|----------------------------------------|----------------------------------||
 |
 |         ~~~~                                 ~~             ~~~~~~~~
 |  E     +Q    E  S  S  S  S  S  S  S  S    S  E    S  E     +E   +H
e|-15b17-(15)-----14h15p14----14h15p14----|---------17-20b22-(20)-(20)-------||
B|-------------------------17----------17-|-17h19----------------------------||
G|----------------------------------------|----------------------------------||
D|----------------------------------------|----------------------------------||
A|----------------------------------------|----------------------------------||
E|----------------------------------------|----------------------------------||

  [Interlude]
   Wx4
e|--------|
B|--------|
G|--------|
D|--------|
A|--------|
E|--------|

   H    Q.   E   +Q   Q  H      H    Q.   E   +Q   Q  H
e|-------------|--------------|-------------|--------------|
B|-------------|--------------|-------------|--------------|
G|-5----4----2-|-(2)----------|-5----4----2-|-(2)----------|
D|-------------|--------------|-------------|--------------|
A|-------------|--------------|-------------|--------------|
E|-------------|--------------|-------------|--------------|

   W          Q  Q   Q  E E   W          Q  Q   Q  E E
e|----------|---------------|----------|---------------|
B|----------|---------------|----------|---------------|
G|----------|---------------|----------|---------------|
D|----------|---------------|----------|---------------|
A|----------|----4s=16s=4---|----------|----4s=16s=4---|
E|----------|----2s=14s=2---|----------|----2s=14s=2---|

                         <
                         PM------------------------------|
   W          W          E E E E E E E E   E E E E E E E E
e|----------|----------|-----------------|-----------------||
B|----------|----------|-----------------|-----------------||
G|----------|----------|-2-2-2-2-2-2-2-2-|-2-2-2-2-2-2-2-2-||
D|----------|----------|-0-0-0-0-0-0-0-0-|-0-0-0-0-0-0-0-0-||
A|----------|----------|-----------------|-----------------||
E|----------|----------|-----------------|-----------------||

[Out-Chorus]
                    PM----|                    PM----|
   H    H      H    E E E E   H    H      H    E E E E
e|-----------|--------------|-----------|--------------|
B|-----------|--------------|-----------|--------------|
G|-----------|--------------|-----------|--------------|
D|-5---------|-2------------|-5---------|-2------------|
A|-5----5----|-2----2-2-2-2-|-5----5----|-2----2-2-2-2-|
E|-3----2----|-0----0-0-0-0-|-3----2----|-0----0-0-0-0-|

                    PM----|                    PM----|
   H    H      H    E E E E   H    H      H    E E E E
e|-----------|--------------|-----------|--------------|
B|-----------|-3------------|-----------|-3------------|
G|-2---------|-2----2-2-2-2-|-2---------|-2----2-2-2-2-|
D|-2----5----|-0----0-0-0-0-|-2----5----|-0----0-0-0-0-|
A|-0----5----|--------------|-0----5----|--------------|
E|------3----|--------------|------3----|--------------|

                    PM----|                    PM----|
   H    H      H    E E E E   H    H      H    E E E E
e|-----------|--------------|-----------|--------------|
B|-----------|--------------|-----------|--------------|
G|-----------|--------------|-----------|--------------|
D|-5---------|-2------------|-5---------|-2------------|
A|-5----5----|-2----2-2-2-2-|-5----5----|-2----2-2-2-2-|
E|-3----2----|-0----0-0-0-0-|-3----2----|-0----0-0-0-0-|

                           PM------------------------------|
   H    H      H    H      E E E E E E E E   E E E E E E E E
e|-----------|-----------|-----------------|-----------------||
B|-----------|-----------|-----------------|-----------------||
G|-5----4----|-2---------|-2-2-2-2-2-2-2-2-|-2-2-2-2-2-2-2-2-||
D|-5----4----|-2----5----|-0-0-0-0-0-0-0-0-|-0-0-0-0-0-0-0-0-||
A|-3----2----|-0----5----|-----------------|-----------------||
E|-----------|------3----|-----------------|-----------------||

[Out-Chorus-Solo]
                            PM------|
   H    H      H            E  E  E  E
e|-----------|-------------------------|
B|-----------|-------------------------|
G|-----------|-------------------------|
D|-5---------|-2-----------------------|
A|-5----5----|-2------------2--2--2--2-|
E|-3----2----|-0------------0--0--0--0-|
 |
 | Gtr II
 | W           E   E  E  E  E  E  E  E
e|-----------|-------------------------|
B|-----------|---/12-13-12-15-13-12----|
G|-----------|----------------------14-|
D|-----------|-------------------------|
A|-----------|-------------------------|
E|-----------|-------------------------|

                             PM----------|
    H    H      H            E E    E    E
e|------------|----------------------------|
B|------------|----------------------------|
G|------------|----------------------------|
D|--5---------|-2--------------------------|
A|--5----5----|-2------------2-2----2----2-|
E|--3----2----|-0------------0-0----0----0-|
|
|  ~~
 |                           |----3----|
 |  W           E   E  E  E  Q    Q    Q
e|------------|----------------------------|
B|------------|-------12-14-12---13---15---|
G|-12---------|---/14----------------------|
D|------------|----------------------------|
A|------------|----------------------------|
E|------------|----------------------------|

                                      PM----|
    H     H                     H     E E E E
e|--------------------------|-----------------|
B|--------------------------|---3-------------|
G|--2-----------------------|---2-----2-2-2-2-|
D|--2-----5-----------------|---0-----0-0-0-0-|
A|--0-----5-----------------|-----------------|
E|--------3-----------------|-----------------|
 |
 |  ~~~                         ~~~~~~~~~~~~~~~
 |  H.        S  S      +E     +W
e|-12-----------------------|-----------------|
B|-----------15-15b17==(15)r|=(15)------------|
G|--------------------------|-----------------|
D|--------------------------|-----------------|
A|--------------------------|-----------------|
E|--------------------------|-----------------|

                                      PM----|
    H     H                     H     E E E E
e|--------------------------|-----------------|
B|--------------------------|---3-------------|
G|--2-----------------------|---2-----2-2-2-2-|
D|--2-----5-----------------|---0-----0-0-0-0-|
A|--0-----5-----------------|-----------------|
E|--------3-----------------|-----------------|
 |
 |~~~~~                         ~~~~
 |  H.        S  S      +E     +W
e|-12-----------------------|-----------------|
B|-----------15-15b17==(15)r|=(15)------------|
G|--------------------------|-----------------|
D|--------------------------|-----------------|
A|--------------------------|-----------------|
E|--------------------------|-----------------|

                                                PM------------|
    H            H                 H            E        E  E  E
e|-----------------------------|---------------------------------|
B|-----------------------------|---------------------------------|
G|-----------------------------|---------------------------------|
D|--5--------------------------|---2-----------------------------|
A|--5------------5-------------|---2------------2--------2--2--2-|
E|--3------------2-------------|---0------------0--------0--0--0-|
 |
 |  ~~~~~~~~~~~~~~~~~~~~~
 |                                              |--3--|
 |  Q      H         +E   E       +E   E  E  E  S  S  S  E  E  E
e|-17b19--17b19-----(17)-17b19r|=(17)-15-17-15-14h15p14----14-15-|
B|-----------------------------|------------------------17-------|
G|-----------------------------|---------------------------------|
D|-----------------------------|---------------------------------|
A|-----------------------------|---------------------------------|
E|-----------------------------|---------------------------------|

                                                                     PM----|
    H                       H                          H             E E E E
e|-------------------------------------------------|---------------------------|
B|-------------------------------------------------|---------------------------|
G|-------------------------------------------------|---------------------------|
D|--5----------------------------------------------|---2-----------------------|
A|--5-----------------------5----------------------|---2-------------2-2-2-2---|
E|--3-----------------------2----------------------|---0-------------0-0-0-0---|
 |
 |  S  S  S  S  S  S  S  S  S  S  S  S  S  S  E       +E   S  S  H.
e|-17-14h15p14-17-14h15p14-17-14h15p14----14-------|---------------------------|
B|-------------------------------------17----17b19r|=(17)-17p15-17\------------|
G|-------------------------------------------------|---------------------------|
D|-------------------------------------------------|---------------------------|
A|-------------------------------------------------|---------------------------|
E|-------------------------------------------------|---------------------------|

    H              H                 H             H
e|--------------------------------|----------------------------------|
B|--------------------------------|----------------------------------|
G|--5--------------4--------------|--2-------------------------------|
D|--5--------------4--------------|--2-------------5-----------------|
A|--3--------------2--------------|--0-------------5-----------------|
E|--------------------------------|----------------3-----------------|
 |
 |                 ~~                          ~~~~
 |                                                     |--3--|
 |  E  E  E  E     Q   S  S  S  S    E  E     +H       S  S  S  S  S
e|--------------------------------|----------------------------------|
B|----------------12--12h13p12----|-12-15b17-(15)-----12h15p12----12-|
G|-------12-14b16--------------14-|----------------------------14----|
D|-12-14--------------------------|----------------------------------|
A|--------------------------------|----------------------------------|
E|--------------------------------|----------------------------------|

    PM---------------------------------------------------------------------------|
    E           E     E E  E    E     E     E       E  E     E     E      E  E E E
e|-----------------------------------------------|----------------------------------*|
B|-----------------------------------------------|----------------------------------*|
G|--2-----------2-----2-2--2----2-----2-----2----|--2--2-----2-----2------2--2-2-2--*|
D|--0-----------0-----0-0--0----0-----0-----0----|--0--0-----0-----0------0--0-0-0--*|
A|-----------------------------------------------|----------------------------------*|
E|-----------------------------------------------|----------------------------------*|
 | 
 |                    ~~                                              ~~~~~~~
 |  S     S     S  S  Q    S  S S  S  S  S  S  S    E  S  S  S  S  S  S  +H
e|-----------------------------------------------|----------------------------------*|
B|-----------------------------------------------|----------------------------------*|
G|-14b16r14b16r14p12-14---14-12---11h12p11----11-|----------------------------------*|
D|-----------------------------------------14----|-14-14-12----12-14-12-(12)--------*|
A|-----------------------------------------------|----------14----------------------*|
E|-----------------------------------------------|----------------------------------*|

************************************

Duration Legend
---------------
W - whole; H - half; Q - quarter; E - 8th; S - 16th; T - 32nd; X - 64th; a - acciaccatura
+ - note tied to previous; . - note dotted; .. - note double dotted
Uncapitalized letters represent notes that are staccato (1/2 duration)
Irregular groupings are notated above the duration line
Duration letters will always appear directly above the note/fret number it represents the
duration for.  Duration letters with no fret number below them represent rests.  Multi-
bar rests are notated in the form Wxn, where n is the number of bars to rest for.  Low
melody durations appear below the staff

Misc Legend
-----------
 |  - bar
||  - double bar
||o - repeat start
o|| - repeat end
*|  - double bar (ending)
 :  - bar (freetime)
 $  - Segno
 &  - Coda
Tempo markers -  = BPM(8/16=s8/s16), where s8 = swing 8ths, s16 = swing 16ths

Tab Legdnd
-----------
| (n)  Ghost note
| \    Slide down
| h    Hammer-on
| p    Pull-off
| b    Bend
| ~    Vibrato
| r    Release
| /    Slide up

************************************

            
            
Suggest correction
Creating personal tab
Creating personal tab
You can edit any tab online and save it as your Personal.

You can edit, replace or remove any tab part or add personal notes – all changes will be seen only by you.

Personal tabs can be accessed anytime from any device, even offline.
Learn more »
comments
print report bad tab
12 comments total. Showing first comments.
+1 reply
Randy Rhoads_1 15 Feb 21, 2006 06:49 AM

BRILLIANT!!!

+1 reply
pigglesworth 61 Apr 16, 2006 12:59 AM

Very good indeed

+1 reply
ChptOfDarkness 344 Nov 07, 2006 09:02 AM

perfect dude. awesome song

guest
You may want to rate the tab now too:
select rating
Wanna post a correction for this tab? Suggest correction