Oops, an error
Loading. Please wait.

Cum On Feel The Noize bass

version 3
version 3

Whole song

Interactive

751 views 1 this week
no commentswrite comment
1 2 3 4 5
3 more votes to show rating
add to favorites
×
Save as Personal and add changes to this tab that will be seen only by you. Learn more ›
×
You can save this tab as Personal to edit and correct it or add notes. All changes will be seen only by you. Learn more »
launch autoscroll
font size
0
reset
guitar tuner
backing track
0:00
0:00
edit
Autoscroll
slow
fast
+/-
esc
set tempo
stop
Author
-----------------------------------------------------------------------------
                     CUM ON FEEL THE NOIZE - Quiet Riot
-----------------------------------------------------------------------------

Tabbed by: Matt Broback
E-mail: 37hambone@gmail.com

Tuning: E A D G   *** All strings tuned down 1/4 note ***

INTRO
|----------|---------|
|:--------:|---------|
|:--------:|---------|
|----------|-------7\|

VERSE 1
|--------|--------|--------|--------|--------|--------|--------|----------|
|--------|--------|--------|--------|--------|--------|--------|----------|
|--------|22222222|--------|------2-|-------3|5555575-|--------|55555/75--|
|3-3-3330|--------|00000000|002023-3|5--033--|-------0|55-033-5|--------75|

|--------|--------|--------|--------|--------|--------|--------|--------|
|--------|--------|--------|--------|--------|--------|--------|--------|
|-------0|22222222|--------|------2-|-------3|5555555-|--------|5555555-|
|3-3-333-|--------|00000000|002023-3|5--033--|-------0|5--033-5|-------7|

|--------|--------|
|--------|--------|
|77777777|5555555-|
|--------|-------0|

CHORUS 1
|--------|--------|--------|--------|--------|----------|--------|----------|
|--------|--------|--------|--------|--------|----------|--------|----------|
|--------|------2-|--------|------2-|--------|55555/75--|--------|55555/75--|
|3--022-2|002023-0|33-022-2|002023-0|5--033-5|--------70|5--033-5|--------70|

|--------|--------|--------|--------|--------|--------|--------|--------|
|--------|--------|--------|--------|--------|--------|--------|--------|
|--------|------2-|--------|------20|33332222|0000----|55555555|5555575-|
|3--022-2|002023-0|33-022-2|002023--|--------|----3330|--------|-------7|

VERSE 2
|----------|--------|--------|--------|--------|----------|--------|----------|
|----------|--------|--------|--------|--------|----------|--------|----------|
|----------|22222222|--------|------2-|-------3|55555/75--|--------|55555/75--|
|3-3-333/50|--------|00000000|002023-0|5550333-|--------70|55503335|--------70|

|--------|--------|--------|--------|--------|----------|--------|--------|
|--------|--------|--------|--------|--------|----------|--------|--------|
|--------|22222222|--------|------2-|-------3|55555/75--|-------3|5555575-|
|3-3-3330|--------|00000000|002023-0|5--033--|--------70|5--033--|-------7|

|--------|--------|
|--------|--------|
|77777777|5555555-|
|--------|-------0|

CHORUS 2
|--------|--------|--------|--------|--------|----------|--------|----------|
|--------|--------|--------|--------|--------|----------|--------|----------|
|--------|------2-|--------|------2-|-------3|55555/75--|-------3|55555/75--|
|3--022-2|002023-0|33-022-2|002023-0|5-033---|--------70|5--033--|--------70|

|--------|--------|--------|--------|--------|--------|--------|--------|
|--------|--------|--------|--------|--------|--------|--------|--------|
|--------|------2-|--------|------20|33332222|0000----|55555555|5555555-|
|3--022-2|002023-0|33-022-2|002023--|--------|----3330|--------|-------0|

SOLO
|--------|--------|--------|--------|--------|--------|--------|--------|
|--------|--------|--------|--------|--------|--------|--------|--------|
|--------|--------|--------|--------|33332222|0000----|5555555-|555-555-|
|3---2---|0-------|3---2---|0-------|--------|----3330|--------|-------0|

|--------|--------|--------|--------|--------|----------|--------|----------|
|--------|--------|--------|--------|--------|----------|--------|----------|
|--------|------2-|--------|------2-|-------3|55555/75--|-------3|55555/75--|
|3--022-2|002023-0|33302220|002023-0|55-533--|--------70|55-033--|--------70|

|--------|--------|--------|--------|--------|--------|--------|--------|
|--------|--------|--------|--------|--------|--------|--------|--------|
|--------|------2-|--------|------20|33332222|0000----|55555555|5555555-|
|3--022-2|002023-0|33-022-2|002023--|--------|----3330|--------|-------0|

VERSE 3
|----------|--------|--------|--------|--------|--------|--------|--------|
|----------|--------|--------|--------|--------|--------|--------|--------|
|----------|22222222|--------|------20|-------3|5555555-|-------3|555-5550|
|3-3-333/50|--------|00000000|002023--|5550333-|-------0|55-033--|--------|

|--------|--------|--------|--------|--------|--------|--------|--------|
|-----5--|--------|--------|--------|--------|--------|--------|--------|
|-------0|22222222|--------|------2-|-------3|5555555-|-------3|55555550|
|3-3-3-3-|--------|00000000|002023-0|5--033--|-------0|5--033--|--------|

|--------|--------|
|--------|--------|
|7-777-77|55555555|
|--------|--------|

INTERLUDE         x3
|--------|----------|--------|--------|--------|--------|
|--------|:--------:|--------|--------|--------|--------|
|--------|:--------:|3---2---|--------|3---2---|--------|
|3\------|----------|--------|5~\-----|--------|5~\-----|

|--------|--------|--------|--------|--------|--------|----------|--------|
|--------|--------|--------|--------|--------|--------|----------|--------|
|--------|7~\-----|--------|7~------|33332222|0000----|3/55555555|5555575-|
|3---2---|--------|3---2---|--------|--------|----3330|----------|-------7|

OUTRO CHORUS
|--------|--------|--------|--------|--------|----------|--------|----------|
|--------|--------|--------|--------|--------|----------|--------|----------|
|--------|------2-|--------|------2-|-------5|55-55/75--|-------5|55-55/75--|
|3--022-2|002023-0|33-022-2|002023-0|55-033--|--------70|55-033--|--------70|

|--------|--------|--------|--------|--------|--------|--------|--------|
|--------|--------|--------|--------|--------|--------|--------|--------|
|--------|------2-|--------|------20|33332222|0000----|55555555|5555555-|
|3--022-2|002023-0|33-022-2|002023--|--------|----3330|--------|-------0|

|--------|--------|--------|----------|--------|----------|--------|--------|
|--------|--------|--------|----2-0---|--------|----------|--------|--------|
|--------|------2-|--------|--------2-|0-0----0|55555/75--|--------|5555575-|
|3--022-2|002023-0|33302222|0020------|---033--|--------70|55-033-5|-------7|
                
|--------|--------|--------|--------|--------|--------|--------|----------|
|--------|--------|--------|--------|--------|--------|--------|----------|
|--------|------2-|--------|------20|33332222|0000----|55555555|55555/75--|
|33-022-2|002023-0|33-022-2|002023--|--------|----3330|--------|--------75|

|--------|--------|--------|--------|--------|--------|
|--------|--------|--------|--------|--------|--------|
|--------|------2-|--------|------2-|--------|55555555|
|3--022-2|002023-0|33-022-2|002023-0|55553335|--------|
Suggest correction
Creating personal tab
Creating personal tab
You can edit any tab online and save it as your Personal.

You can edit, replace or remove any tab part or add personal notes – all changes will be seen only by you.

Personal tabs can be accessed anytime from any device, even offline.
Learn more »
Give kudos to tab author, rate the tab!
1 2 3 4 5
comments
print report bad tab
guest
You may want to rate the tab now too:
select rating
Wanna post a correction for this tab? Suggest correction