Oops, an error
Loading. Please wait.

Slick Black Cadillac Tab

version 1
version 1

Whole song

Interactive

1,564 views 12 this week
no commentswrite comment
1 2 3 4 5
please rate
add to favorites
launch autoscroll
font size
0
reset
how to read this tab
guitar tuner
Tab Pro tools
  • play this tab
  • loop segment
  • change instrument
  • show fretboard
  • metronome
×
Best way to learn
"Slick Black Cadillac"
Autoscroll
slow
fast
+/-
esc
set tempo
stop
Contributor
P.M.- Palm mute
*- pinch harmonic
                        This is basicly how the song goes I didnt tab out every fill

Intro
-----------------------------------------------------|
-----------------------------------------------------|
-------------------4*--------------------------------|
--7--6--4--------------------------------------------|
--5--4--2---5-4-2------------------------------------|
-----------------------------------------------------|
Verse
---------------------------------------------------------------------|
---------------------------------------------------------------------|
--------------------------------------------------------2--^---------|
---5--6--4----------------------------------------------2--2---------|
---7--4--2-2-2-2-2-2-2-2-2--0---------------------------0--2---------|
------------------------------4-2--2-2-2-2-2-2-2-2-2-------0---------|
   P.M.    ***************         *****************       bend neck
repeat then back to verse
--------------------------------------------------------------|
--------------------------------------------------------------|
--9--8--------------------------------------------------------|
--9--8--9--7--7/--9-------------------------------------------|
--7--6--9--7--7/--9-------------------------------------------|
--------7--5--5/--7-------------------------------------------|

Chorus Pt 1. reapet                                         Fill
----------------------------------------------------|--------------------|
----------------------------------------------------|--------------------|
-----9-----9-----9----------------------------------|--4b-2-4-2----------|
-----9-----9-----9---7-------7-------7---9--9-------|--------------------|
-----7-----7-----7---7-------7-------7---9--9-------|--------------------|
-0-0---0-0---0-0-----5-5-5-5-5-5-5-5-5---7--7-------|--------------------|
Pt 2. reapet then go back to part one
------------------------------------------------------|
------------------------------------------------------|
-9--7--4----------------------------------------------|
-9--7--4----------------------------------------------|
-7--5--2-0-0-2----------------------------------------|
------------------------------------------------------|
1st Interlude back to verse
----------------------------9-----9-----9------------------|
-----------------8-7----------8-----8-----8----------------|
-4--5--6--7----------9-7-9------7-----7-----7--------------|
-4--5--6--7------------------------------------------------|
-2--3--4--5------------------------------------------------|
-----------------------------------------------------------|
2nd interlude                reapet over and over again

----------------------------------2-------3--------------------|
-----------------8-7------------3-------3----------------------|
-4--5--6--7----------9-7-9----2-------0------------------------|
-4--5--6--7-----------------0-------0--------------------------|
-2--3--4--5----------------------------------------------------|
---------------------------------------------------------------|
               P.M.        ****************
Solo thing
----------------17----17----17-------------------------------|
-------------16----16----16-------------20b-20b--------------|
-----2--------------------------14/-17-----------------------|
-----2-------------------------------------------------------|
-----0x9-----------------------------------------------------|
--3b---------------------------------------------------------|
ending
----------------------------------------------------------|
----------------------------------------------------------|
----------------------------------------------------------|
------5---5---5---5---------------------------------------|
------5---5---5---5---------------------------------------|
------7---7---7---7---------------------------------------|
slowly flick pickup switch on and off neck pickup dial 3
comments
We did not receive enough feedback on this tab! Please rate:
print report bad tab
1 2 3 4 5
I want to post or [tab]
guest
You may want to rate the tab now too:
select rating
Please do not post tabs as comments. Select "correction" instead!