Oops, an error
Loading. Please wait.

Daddys Little Girl Tab

version 1
version 1

Whole song

2,489 views 1 this week
3 commentsread comments
1 2 3 4 5
x 3
add to favorites
launch autoscroll
font size
0
reset
how to read this tab
guitar tuner
Autoscroll
slow
fast
+/-
esc
set tempo
stop
Help us to improve Ultimate-Guitar.com Take our survey!
×
So I tried finding this song on here but no one did it yet so heres my first shot
at the song. Also I realize this might be wrong so any help on it would be most appreciated.

Intro, chorus
Guitar 1
E-4---4---4---4---5---5---5---5---4---4---4---4----------------------------|
B--5---5---5---5---5---5---5---5---5---5---5---5--4---4---4---4------------|
G---6---6---6---6---6---6---6---6---4---4---4---4--5---5---5---5-----------|
D---------------------------------------------------6---6---6---6----------|
A--------------------------------------------------------------------------|
E--------------------------------------------------------------------------|
intro, verses, chorus
Guitar 2
E--4--------------5----------------0---------------4-----------------------|
B--5--------------5----------------0---------------4-----------------------|
G--6--------------6----------------1---------------5-----------------------|
D--6--------------7----------------2---------------6-----------------------|
A--4--------------7----------------2---------------6-----------------------|
E--x--------------5----------------0---------------4-----------------------|

And if anyone could help with the solo that would be sweet

Tabbed by: Akcruiser
Suggest correction
Give kudos to tab author, rate the tab!
1 2 3 4 5
comments
print report bad tab
3 comments total.
0 reply
petey gunnz 90 Feb 07, 2009 03:43 PM

nice tab bro i like it

0 reply
greganator22 10 Jan 27, 2010 03:34 PM


E--------------------------------------------------------------------|
B--------------------------------------------------------------------|
G-9-11-13-13-11-9-13---9-11-13-13-11-9------9-11-13-13-11-9----------|
D--------------------------------------11----------------------------|
A--------------------------------------------------------------------|
E--------------------------------------------------------------------|

E--------------------------------------------------------------------|
B--------------------------------------------------------------------|
G-----9-9-13-13-9-9-----9-9-13-13-9-9-----5-5-8-8-5-5-----5-5-8-8-5-5|
D-9-9---------------9-9---------------6-6-------------6-6------------|
A--------------------------------------------------------------------|
E---------------------------------------------------------------------|

E--------------------------------------------------------------------|
B--------------------------------------------------------------------|
G-13-13/18-----------------------------------------------------------|
D--------------------------------------------------------------------|
A--------------------------------------------------------------------|
E--------------------------------------------------------------------|

0 reply
greganator22 10 Jan 27, 2010 03:35 PM

^ thats the solo... pretty sure its right

guest
You may want to rate the tab now too:
select rating
Wanna post a correction for this tab? Suggest correction