Oops, an error
Loading. Please wait.

Rise From The Ashes Tab

version 2
version 2

Intro

Whole song

Interactive

8,220 views 6 this week
7 commentsread comments
1 2 3 4 5
x 8
add to favorites
launch autoscroll
font size
0
reset
how to read this tab
guitar tuner
Autoscroll
slow
fast
+/-
esc
set tempo
stop
Help us to improve Ultimate-Guitar.com Take our survey!
×
Author
Difficulty
novice
                     Quietdrive - Rise from the ashes

The most part of this is 100% correct.
Off the NHL 07 soundtrack... excellent song.

Lead Guitar - EADGBE
Rhythm Guitar - EADGBE

Intro
Lead
E|-0------0--000000000000-0--0------0-000000000000---|
B|-12-x12-10-999999999999-10-12-x11-9-777777777777---|
G|---------------------------------------------------|
D|---------------------------------------------------|
A|---------------------------------------------------|
E|---------------------------------------------------|

E|-4-2-0-------4-2-0---------0-0-0-----|-5-5-5-5-5-5-5-5-5-5-5-5-4h5p4---|
B|-------4-2-0-------4-2-0-4---------x3|---------------------------------|
G|-------------------------------------|---------------------------------|
D|-------------------------------------|---------------------------------|
A|-------------------------------------|---------------------------------|
E|-------------------------------------|---------------------------------|

Rhythm
E|-------------------------|
B|-------------------------|
G|-6-----2-----------4-----| x2
D|-6-----2-----2-----4-----|
A|-4-x12-0-x12-2-----2-x12-|
E|-------------0-x12-------|

Verse
Rhythm
E|-------------------------------------------------------------------------|
B|-------------------------------------------------------------------------|
G|-6-6-6-6-6-6-6-6-6-6-6-6-2-2-2-2-2-2-2-2-2-2-2-2-------------------------|
D|-6-6-6-6-6-6-6-6-6-6-6-6-2-2-2-2-2-2-2-2-2-2-2-2-2-2-2-2-2-2-2-2-2-2-2-2-|
A|-4-4-4-4-4-4-4-4-4-4-4-4-0-0-0-0-0-0-0-0-0-0-0-0-2-2-2-2-2-2-2-2-2-2-2-2-|
E|-------------------------------------------------0-0-0-0-0-0-0-0-0-0-0-0-|
PM . . . . . . . . . . . . . . . . . . . . . . . . . . . . . . . . . . . .

E|--------------------------|
B|--------------------------|
G|-4-4-4-4-4-4-4-4-4-4-4-4--| x2
D|-4-4-4-4-4-4-4-4-4-4-4-4--|
A|-2-2-2-2-2-2-2-2-2-2-2-2--|
E|--------------------------|
   . . . . . . . . . . . .

Chorus
Lead
E|-0------0--000000000000-0--0------0-000000000000---|
B|-12-x12-10-999999999999-10-12-x11-9-777777777777---|
G|---------------------------------------------------| x2
D|---------------------------------------------------|
A|---------------------------------------------------|
E|---------------------------------------------------|

Rhythm
E|-------------------------------------------------------------|
B|-------------------------------------------------------------|
G|-66-66-6-6-6-6--22-22-2-2-2-2-----------------44-44-4-4-4-4--| x2
D|-66-66-6-6-6-6--22-22-2-2-2-2--22-22-2-2-2-2--44-44-4-4-4-4--|
A|-44-44-4-4-4-4--00-00-0-0-0-0--22-22-2-2-2-2--22-22-2-2-2-2--|
E|-------------------------------00-00-0-0-0-0-----------------|

Verse
Rhythm
E|-------------------------------------------------------------------------|
B|-------------------------------------------------------------------------|
G|-6-6-6-6-6-6-6-6-6-6-6-6-2-2-2-2-2-2-2-2-2-2-2-2-------------------------|
D|-6-6-6-6-6-6-6-6-6-6-6-6-2-2-2-2-2-2-2-2-2-2-2-2-2-2-2-2-2-2-2-2-2-2-2-2-|
A|-4-4-4-4-4-4-4-4-4-4-4-4-0-0-0-0-0-0-0-0-0-0-0-0-2-2-2-2-2-2-2-2-2-2-2-2-|
E|-------------------------------------------------0-0-0-0-0-0-0-0-0-0-0-0-|
PM . . . . . . . . . . . . . . . . . . . . . . . . . . . . . . . . . . . .

E|--------------------------|
B|--------------------------|
G|-4-4-4-4-4-4-4-4-4-4-4-4--|
D|-4-4-4-4-4-4-4-4-4-4-4-4--|
A|-2-2-2-2-2-2-2-2-2-2-2-2--|
E|--------------------------|
   . . . . . . . . . . . .

E|-----------------------------------------------------------|
B|-----------------------------------------------------------|
G|-66-66-66-6666-22-22-22-2222---------------44-44-44-4444---|
D|-66-66-66-6666-22-22-22-2222-22-22-22-2222-44-44-44-4444---|
A|-44-44-44-4444-00-00-00-0000-22-22-22-2222-22-22-22-2222---|
E|-----------------------------00-00-00-0000-----------------|

Bridge
Rhythm
E|------------|
B|------------|
G|-44-44-44~--|
D|-44-44-44~--|
A|-22-22-22~--|
E|------------|

Lead
E|-4-2-0-------4-2-0---------0-0-0----|-5-5-5-5-5-5-5-5-5-5-5-5-4h5p4-4-4-|
B|-------4-2-0-------4-2-0-4----------|-----------------------------------|
G|---------------------------------x3-|-----------------------------------|
D|------------------------------------|-----------------------------------|
A|------------------------------------|-----------------------------------|
E|------------------------------------|-----------------------------------|

Rhythm

E|----------------------------|
B|----------------------------|
G|--6-----2-----------4-------|
D|--6-----2-----2-----4-------|
A|--4-x12-0-x12-2-----2-x12---|
E|--------------0-x12---------|

Rhythm
E|-------------------------------------------------------------------------|
B|-------------------------------------------------------------------------|
G|-6-6-6-6-6-6-6-6-6-6-6-6-2-2-2-2-2-2-2-2-2-2-2-2-------------------------|
D|-6-6-6-6-6-6-6-6-6-6-6-6-2-2-2-2-2-2-2-2-2-2-2-2-2-2-2-2-2-2-2-2-2-2-2-2-|
A|-4-4-4-4-4-4-4-4-4-4-4-4-0-0-0-0-0-0-0-0-0-0-0-0-2-2-2-2-2-2-2-2-2-2-2-2-|
E|-------------------------------------------------0-0-0-0-0-0-0-0-0-0-0-0-|
PM . . . . . . . . . . . . . . . . . . . . . . . . . . . . . . . . . . . .

E|--------------------------|
B|--------------------------|
G|-4-4-4-4-4-4-4-4-4-4-4-4--| x2
D|-4-4-4-4-4-4-4-4-4-4-4-4--|
A|-2-2-2-2-2-2-2-2-2-2-2-2--|
E|--------------------------|
   . . . . . . . . . . . .

Lead Guitar does a pickscrape.

Chorus

Outro
Lead
E|-4-2-0-------4-2-0---------0-0-0-----|5-5-5-5-5-5-5-5-5-5-5-5-4h5p4-5-4-0~|
B|-------4-2-0-------4-2-0-4---------x3|------------------------------------|
G|-------------------------------------|------------------------------------|
D|-------------------------------------|------------------------------------|
A|-------------------------------------|------------------------------------|
E|-------------------------------------|------------------------------------|

Rhythm
E|--------------------------|
B|--------------------------|
G|-6-----2-----------4------|
D|-6-----2-----2-----4------|
A|-4-x12-0-x12-2-----2-x12--|
E|-------------0-x12--------|

The End
Suggest correction
comments
print report bad tab
7 comments total. Showing first comments.
-1 reply
gigson111 143 Mar 23, 2007 07:45 PM

dude this is the whole song not the intro

0 reply
noname12345 10 May 27, 2007 06:33 PM

Nice tab! I give you 5 starts not because I know you or because you go to my school!

0 reply
fenderbassdude 76 Mar 06, 2008 05:44 PM

dude good job 5 stars but why did u say it was the intro its the whole song lol

guest
You may want to rate the tab now too:
select rating
Wanna post a correction for this tab? Suggest correction