Oops, an error
Loading. Please wait.

Rush Together Tab

version 1
version 1

Whole song

10,380 views 1 this week
2 commentsread comments
1 2 3 4 5
excellent!
x 4
add to favorites
launch autoscroll
font size
0
reset
how to read this tab
guitar tuner
Tab Pro tools
  • play this tab
  • loop segment
  • change instrument
  • show fretboard
  • metronome
×
Best way to learn
"Rush Together"
Autoscroll
slow
fast
+/-
esc
set tempo
stop
Contributor
Difficulty
Capo
intermediate
3rd fret
Quietdrive - Rush Together (intro)

Tabbed by azaske
Standard Tuning
Capo 3rd Fret - frets noted in relation to capo

Verse (smooth & quick flat-pick)
e-----------------------------------------------------------------------|
b--------1---------------1---------------1---------------1--------------|
g------0---0---0-------0---0---0-------0---0---0-------0---0---0--------|
d----2-------2---2---2-------2---2---2-------2---2---2-------2---2------|
a--3---------------3---------------0---------------0--------------------|
E-----------------------------------------------------------------------|


e-----------------------------------------------------------------------|
b--------1---------------1---------------1---------------1--------------|
g------0---0---0-------0---0---0-------0---0---0-------0---0---0--------|
d----2-------2---2---2-------2---2---2-------2---2---2-------2---2------|
a-----------------------------------------------------------------------|
E--3---------------3---------------1---------------1--------------------|


1st Chorus:

e-----------------------------------------------------------------------|
b--------1---------------1---------------1---------------1--------------|
g------0---0---0-------0---0---0-------0---0---0-------0---0---0--------|
d----2-------2---2---2-------2---2---2-------2---2---2-------2---2------|
a--3--------------------------------------------------------------------|
E------------------3---------------1---------------1--------------------|


When distortion & throughout the rest of the song:
(rhythm is not hard to figure out on your own)

e-----I-----------------I------------------|
b-----I-----------------I------------------|
g-----I--5--------------I--2---------------|
d--3--I--5---5---3---5--I--2---5---3---5---|
a--3--I--3---5---3---5--I--0---5---3---5---|
E--1--I------3---1---3--I------3---1---3---|
comments
print report bad tab
2 comments total.
+1 reply
superdude1400 wrote on February 9 2006, 11:50 am

It was better than my tab

+4 reply
jordanwindel wrote on May 29 2007, 08:43 pm

put a capo on the 3rd fret.. it saves you a finger and you dont have that annoying uncomfortable stretch

I want to post or [tab]
guest
You may want to rate the tab now too:
select rating
Please do not post tabs as comments. Select "correction" instead!