Oops, an error
Loading. Please wait.

Take A Drink Tab

version 2
version 2

Whole song

936 views 1 this week
no commentswrite comment
1 2 3 4 5
excellent!
x 1
add to favorites
launch autoscroll
font size
0
reset
how to read this tab
guitar tuner
Tab Pro tools
  • play this tab
  • loop segment
  • change instrument
  • show fretboard
  • metronome
Autoscroll
slow
fast
+/-
esc
set tempo
stop
Contributor
                     Take A Drink - Quietdrive
-------------------------------------------------------------------------------
Tabbed by: Rags
Email: h.ragnauth@ukonline.co.uk

Tuning: GUITAR 1 - STANDARD
        GUITAR 2 - DADGBe

FOLLOW EXACTLY           
PLEASE RATE             
P.M - heavy palm mute


Guitar one
E|---------------------------------------------------------------------------|
B|---------------------------------------------------------------------------|
G|---------------------------------------------------------------------------|
D|--7-7-7-7--5-5-5-5--3-3-3-3--2-2-2-2-----------------------------2-2-2-2---| x2
A|--8-8-8-8--7-7-7-7--5-5-5-5--3-3-3-3--5-5-5-5--3-3-3-3--1-1-1-1--3-3-3-3---|
E|--------------------------------------6-6-6-6--5-5-5-5--3-3-3-3------------|
P.M    .    .    .    .    .    .    .    .    .   (second time through release palm mute near the end)

Guitar two (comes in second time through)
|-----------------------------------------------|
|-----------------------------------------------|
|-----------------------------------------------|
|------10---------10---------10---------10------| x2
|--8-8----8---8-8----8---8-8----8---8-8----8----|
|-----------------------------------------------|


Both guitars (GUITAR TWO PLAYS BOTTOM STRING TWO FRETS HIGHER)
|---------------------------------------------------------------------------|
|---------------------------------------------------------------------------|
|---------------------------------------------------------------------------|
|--12-12---8-8---12-12---8-8-8-8---10-10-10-10------------------------------|
|--12-12---8-8---12-12---8-8-8-8---10-10-10-10------------------------------|
|--10-10---6-6---10-10---6-6-6-6---8--8--8--8-------------------------------|


|-----------------|        That’s basically all it is! It’s the 
|-----------------|        bass that changes the pitch of the chorus
|----------5------| x2
|-3--------5-x20--|
|-3-x4-----3------|
|-1---------------|


Guitar one
|---------------------------------------------------------------------------|
|---------------------------------------------------------------------------|
|---------------------------------------------------------------------------|
|--7-7-7-7--5-5-5-5--3-3-3-3--2-2-2-2-----------------------------2-2-2-2---| x2
|--8-8-8-8--7-7-7-7--5-5-5-5--3-3-3-3--5-5-5-5--3-3-3-3--1-1-1-1--3-3-3-3---|
|--------------------------------------6-6-6-6--5-5-5-5--3-3-3-3------------|
P.M    .    .    .    .    .    .    .    .    .   (second time through release palm mute near the end)

Guitar two
|-----------------------------------------------------|
|---6-----6-----6-----6-----3-----1-------------1-----|
|-5-----5-----5-----5-----3-----2-----0-3-------------|
|---------------------------------------------2-------| x2
|-----------------------------------------------------|
|-----------------------------------------------------|

Both guitars (GUITAR TWO PLAYS BOTTOM STRING TWO FRETS HIGHER)
|---------------------------------------------------------------------------|
|---------------------------------------------------------------------------|
|---------------------------------------------------------------------------|
|--12-12---8-8---12-12---8-8-8-8---10-10-10-10------------------------------|
|--12-12---8-8---12-12---8-8-8-8---10-10-10-10------------------------------|
|--10-10---6-6---10-10---6-6-6-6---8--8--8--8-------------------------------|

|-----------------|        
|-----------------|        
|----------5------| x2
|-3--------5-x20--|
|-3-x4-----3------|
|-1---------------|

Guitar one
|-----------------------------------------------------|
|----------------------11-11-xxxx-10-10---------------|
|--7-7-xxxx-10-10-xxxx-10-10-xxxx-9--9----------------| x2
|--7-7-xxxx-10-10-xxxx-8--8--xxxx-7--7------7-8-7-----|
|--5-5-xxxx-8--8--xxxx----------------------------8---|
|-----------------------------------------------------|

Guitar two (kinda tricky!!)
|----8---------8----8---------8--------|
|------6---5-6---8----8---5-6---8------|
|--7-----7--------------7--------------|
|--------------------------------------| x2
|--------------------------------------|
|--------------------------------------|


Guitar TWO!!
|-------------------------------------------|
|-------------------------------------------|
|-------------------------------------------|
|-0000000-8888888-10101010101010-3332220----| X2
|-0000000-8888888-10101010101010-3332220----|
|-0000000-8888888-10101010101010-3332220----|
P.M    .    .    .    .    .    .    .    .  

Guitar ONE!!!
|-8---------8-------|
|---8---5-6---8-----|
|-----7-------------| x8
|-------------------|
|-------------------|
|-------------------|

Guitar one
|---------------------------------------------------------------------------|
|---------------------------------------------------------------------------|
|---------------------------------------------------------------------------|
|--12-12---8-8---12-12---8-8-8-8---10-10-10-10------------------------------|
|--12-12---8-8---12-12---8-8-8-8---10-10-10-10------------------------------|
|--10-10---6-6---10-10---6-6-6-6---8--8--8--8-------------------------------|

Guitar two
|--8-8-----8----8---------8-------|
|------5-6---8----8---5-6---------|
|-------------------7-------------| x4
|---------------------------------|
|---------------------------------|
|---------------------------------|

Both Guitars (GUITAR TWO PLAY BOTTOM STRING TWO FRETS HIGHER)
|-----------------|        
|-----------------|        
|----------5------| x2
|-3--------5-x20--|
|-3-x4-----3------|
|-1---------------|


|------------------------------|
|------------------------------|
|----------5-5-xxxx--5---------|
|-3-3-xxxx-5-5-xxxx--5--x16----|
|-3-3-xxxx-3-3-xxxx--3---------|
|-1-1-xxxx---------------------|


Guitar one
|---------------------------------------------------------------------------|
|---------------------------------------------------------------------------|
|---------------------------------------------------------------------------|
|--7-7-7-7--5-5-5-5--3-3-3-3--2-2-2-2-----------------------------2-2-2-2---|
|--8-8-8-8--7-7-7-7--5-5-5-5--3-3-3-3--5-5-5-5--3-3-3-3--1-1-1-1--3-3-3-3---|
|--------------------------------------6-6-6-6--5-5-5-5--3-3-3-3------------|



|----6----------------6------------------6----------------6-----------------|
|------7-----9-7--------7------9-7---------7------9-7-------7-------9-7-----|
|---------------------------------------------------------------------------|
|---------------------------------------------------------------------------|
|---------------------------------------------------------------------------|
|---------------------------------------------------------------------------|

comments
We did not receive enough feedback on this tab! Please rate:
print report bad tab
1 2 3 4 5
I want to post or [tab]
guest
You may want to rate the tab now too:
select rating
Please do not post tabs as comments. Select "correction" instead!