Oops, an error
Loading. Please wait.

Time After Time Tab

version 4
version 4

Whole song

222 views 1 this week
no commentswrite comment
1 2 3 4 5
please rate
add to favorites
launch autoscroll
font size
0
reset
how to read this tab
guitar tuner
Tab Pro tools
  • play this tab
  • loop segment
  • change instrument
  • show fretboard
  • metronome
×
Best way to learn
"Time After Time"
Autoscroll
slow
fast
+/-
esc
set tempo
stop
Difficulty
novice
~INTRO~

e|-----0-0---0-0---0-0---0-0--|
b|--1-1---1-1---1-1---1-1-----|
g|----------------------------|
d|----------------------------|
a|----------------------------|
E|----------------------------|
     *play 4 times

BRIDGE

Guitar 2 (clean) – Rhythm Figure 1
e|-----------------------------------------------------|
b|-----------------------------------------------------|
g|--5-------5--------1----------------2----------------|X2
d|--5-------5--------2--hold-4-beats--3--hold-4-beats--|
a|--3-------3--------2----------------3----------------|
E|-----------------------------------------------------|
     *play 2 times

pre-chorus

e|-----------------------------------------------------------------------|
b|-----------------------------------------------------------------------|
g|----5-5-5---7-7-7--4-4-4--5-5-5-5-5--------------5-5-5--7-7-7--4-4-4---|
d|----5-5-5---7-7-7--4-4-4--5-5-5-5-5--3-3-3-3-3-3-5-5-5--7-7-7--4-4-4---|
a|----3-3-3---5-5-5--2-2-2--3-3-3-3-3--3-3-3-3-3-3-3-3-3--5-5-5--2-2-2---|
E|-------------------------------------1-1-1-1-1-1-----------------------|

E|----------------------------------------------------------------|
B|----------------------------------------------------------------|
G|----------------------------------------------------------------|
D|---5-5-5--------------------------------------------------------|
A|---5-5-5--------------------------------------------------------|
E|---3-3-3--------------------------------------------------------|

Chorus

E|----------------------------------------------------------------|
B|----------------------------------------------------------------|
G|--------------------------------------------5-5-5-5-5-5---------|
D|--5-5-5-5-5-5-5--7-7-7-7-7-7--3-3-3--5-5-5--5-5-5-5-5-5---------|
A|--5-5-5-5-5-5-5--7-7-7-7-7-7--3-3-3--5-5-5--3-3-3-3-3-3---------|
E|--3-3-3-3-3-3-3--5-5-5-5-5-5--1-1-1--3-3-3----------------------|

BRIDGE

Guitar 2 (clean) – Rhythm Figure 1
e|-----------------------------------------------------|
b|-----------------------------------------------------|
g|--5-------5--------1----------------2----------------|X2
d|--5-------5--------2--hold-4-beats--3--hold-4-beats--|
a|--3-------3--------2----------------3----------------|
E|-----------------------------------------------------|
     *play 2 times

pre-chorus

e|-----------------------------------------------------------------------|
b|-----------------------------------------------------------------------|
g|----5-5-5---7-7-7--4-4-4--5-5-5-5-5--------------5-5-5--7-7-7--4-4-4---|
d|----5-5-5---7-7-7--4-4-4--5-5-5-5-5--3-3-3-3-3-3-5-5-5--7-7-7--4-4-4---|
a|----3-3-3---5-5-5--2-2-2--3-3-3-3-3--3-3-3-3-3-3-3-3-3--5-5-5--2-2-2---|
E|-------------------------------------1-1-1-1-1-1-----------------------|

E|----------------------------------------------------------------|
B|----------------------------------------------------------------|
G|----------------------------------------------------------------|
D|---5-5-5--------------------------------------------------------|
A|---5-5-5--------------------------------------------------------|
E|---3-3-3--------------------------------------------------------|

Chorus

E|----------------------------------------------------------------|
B|----------------------------------------------------------------|
G|--------------------------------------------5-5-5-5-5-5---------|
D|--5-5-5-5-5-5-5--7-7-7-7-7-7--3-3-3--5-5-5--5-5-5-5-5-5---------|
A|--5-5-5-5-5-5-5--7-7-7-7-7-7--3-3-3--5-5-5--3-3-3-3-3-3---------|
E|--3-3-3-3-3-3-3--5-5-5-5-5-5--1-1-1--3-3-3----------------------|

e|--88877777555333333353--------------|
b|----------------------5331131133/5--|
g|------------------------------------|X2
d|------------------------------------|
a|------------------------------------|
E|------------------------------------|
     
E|----------------------------------------------------------------|
B|----------------------------------------------------------------|
G|--------------------------------------------5-5-5-5-5-5---------|
D|--5-5-5-5-5-5-5--7-7-7-7-7-7--3-3-3--5-5-5--5-5-5-5-5-5---------|X2
A|--5-5-5-5-5-5-5--7-7-7-7-7-7--3-3-3--5-5-5--3-3-3-3-3-3---------|
E|--3-3-3-3-3-3-3--5-5-5-5-5-5--1-1-1--3-3-3----------------------|

Chorus

E|----------------------------------------------------------------|
B|----------------------------------------------------------------|
G|--------------------------------------------5-5-5-5-5-5---------|
D|--5-5-5-5-5-5-5--7-7-7-7-7-7--3-3-3--5-5-5--5-5-5-5-5-5---------|X4
A|--5-5-5-5-5-5-5--7-7-7-7-7-7--3-3-3--5-5-5--3-3-3-3-3-3---------|
E|--3-3-3-3-3-3-3--5-5-5-5-5-5--1-1-1--3-3-3----------------------|

comments
We did not receive enough feedback on this tab! Please rate:
print report bad tab
1 2 3 4 5
I want to post or [tab]
guest
You may want to rate the tab now too:
select rating
Please do not post tabs as comments. Select "correction" instead!