Oops, an error
Loading. Please wait.

Mike Fast Tab

189 views 1 this week
no commentswrite comment
1 2 3 4 5
2 more votes to show rating
add to favorites
launch autoscroll
font size
0
reset
how to read this tab
guitar tuner
Autoscroll
slow
fast
+/-
esc
set tempo
stop
Help us to improve Ultimate-Guitar.com Take our survey!
×
Author
Quit Your Dayjob - Mike Fast
________________________________________________________

e|-6-6-6-6----9-----8---8--| e|-2-2-2-2--4--6-6-|
B|-6-6-6-6----9-----8---8--| B|-2-2-2-2--4--6-6-|
G|-7-7-7-7----10----9---9--| G|-3-3-3-3--5--7-7-|
D|-8-8-8-8----11----10--10-| D|-4-4-4-4--6--8-8-|  x2
A|-8-8-8-8----11----10--10-| A|-4-4-4-4--6--8-8-|
E|-6-6-6-6----9-----8---8--| E|-2-2-2-2--4--6-6-|
________________________________________________________



e|-10--8---7--5--10--8---7--12-|
B|-10--8---7--5--10--8---7--12-|
G|-11--9---8--6--11--9---8--13-|  X 1
D|-12--10--9--7--12--10--9--14-|  
A|-12--10--9--7--12--10--9--14-|
E|-10--8---7--5--10--8---7--12-|


________________________________________________________

e|-6-6-6-6----9-----8---8--| e|-2-2-2-2--4--6-6-|
B|-6-6-6-6----9-----8---8--| B|-2-2-2-2--4--6-6-|
G|-7-7-7-7----10----9---9--| G|-3-3-3-3--5--7-7-|
D|-8-8-8-8----11----10--10-| D|-4-4-4-4--6--8-8-|  x2
A|-8-8-8-8----11----10--10-| A|-4-4-4-4--6--8-8-|
E|-6-6-6-6----9-----8---8--| E|-2-2-2-2--4--6-6-|

________________________________________________________


e|-10--8---7--5--10--8---7--12-|
B|-10--8---7--5--10--8---7--12-|
G|-11--9---8--6--11--9---8--13-|  X 1
D|-12--10--9--7--12--10--9--14-|  
A|-12--10--9--7--12--10--9--14-|
E|-10--8---7--5--10--8---7--12-|

________________________________________________________


e|-6-6-6-6----9-----8---| e|-2-2-2-2--4--6-|
B|-6-6-6-6----9-----8---| B|-2-2-2-2--4--6-|
G|-7-7-7-7----10----9---| G|-3-3-3-3--5--7-|
D|-8-8-8-8----11----10--| D|-4-4-4-4--6--8-|  x2
A|-8-8-8-8----11----10--| A|-4-4-4-4--6--8-|
E|-6-6-6-6----9-----8---| E|-2-2-2-2--4--6-|

________________________________________________________

Here's the "solo" 



e|-8-8-8-8-8-8-8-8-8-8-8-8-8-8-8-8-8-8-8-8-8-8-8-8-8-8-8-8-|
B|---------------------------------------------------------|
G|---------------------------------------------------------|
D|---------------------------------------------------------|
A|---------------------------------------------------------|
E|---------------------------------------------------------|


e|-8-8-8-8-8-8-8-8-8-8-8--|
B|------------------------|
G|------------------------|
D|------------------------|
A|------------------------|
E|------------------------|

________________________________________________________


e|-10--8---7--5--10--8---7--12-|
B|-10--8---7--5--10--8---7--12-|
G|-11--9---8--6--11--9---8--13-|  X 1
D|-12--10--9--7--12--10--9--14-|  
A|-12--10--9--7--12--10--9--14-|
E|-10--8---7--5--10--8---7--12-|

________________________________________________________


e|-6-6-6-6----9-----8---8--| e|-2-2-2-2--4--6--|
B|-6-6-6-6----9-----8---8--| B|-2-2-2-2--4--6--|
G|-7-7-7-7----10----9---9--| G|-3-3-3-3--5--7--|
D|-8-8-8-8----11----10--10-| D|-4-4-4-4--6--8--|  
A|-8-8-8-8----11----10--10-| A|-4-4-4-4--6--8--|
E|-6-6-6-6----9-----8---8--| E|-2-2-2-2--4--6--|
Suggest correction
Give kudos to tab author, rate the tab!
1 2 3 4 5
comments
print report bad tab
guest
You may want to rate the tab now too:
select rating
Wanna post a correction for this tab? Suggest correction