Oops, an error
Loading. Please wait.

Major Snooze Tab

140 views 1 this week
no commentswrite comment
1 2 3 4 5
3 more votes to show rating
add to favorites
launch autoscroll
font size
0
reset
how to read this tab
guitar tuner
Autoscroll
slow
fast
+/-
esc
set tempo
stop
Help us to improve Ultimate-Guitar.com Take our survey!
×
Author
Quorthon - Major Snooze
-----------------------

When I have enough time, maybe I'm going to tab the lead parts too.
Listen carefully to the timings for certain riffs.

Tuning: Drop D (D A D G B E)


Intro/Chorus

E|------------------|----------------|
B|------------------|----------------|
G|------------------|----------------|
D|------------------|----------------|
A|--------5---------|----------------|
D|-0--5-6---6-5--3--|-5--3--5--3-5-6-|

E|------------------|-------------------|
B|------------------|-------------------|
G|------------------|---R---R---R---R---|
D|------------------|-------------------|
A|--------5---------|-----2---3---4---5-|
D|-0--5-6---6-5--3--|-5---2---3---4---5-|

  
Verse

E|-----------------|-----------------|
B|-----------------|-----------------|
G|-----------------|-----------------|
D|------5----------|------5----------|
A|-0--0-3--3-3-2-3-|-0--0-3--3-3-3-5-|
D|-0--0-3--3-3-2-3-|-0--0-3--3-3-3-5-|


Pre-Chorus

E|---------------------|------------------|
B|----------------8--8-|-6-----6-----6----|
G|----------------7--7-|-5-----5-----5----|
D|-5----5----5----5--5-|-3-----3-----3----|
A|-5--5-5--5-5--5-5--5-|-3--2--3--2--3--2-|
D|-5--5-5--5-5--5-5--5-|-3--2--3--2--3--2-|
      .    .    .

E|---------------------|-----------------|
B|----------------8--8-|-----------------|
G|----------------7--7-|-R---R---R---R---|
D|-5----5----5----5--5-|-----------------|
A|-5--5-5--5-5--5-5--5-|---2---3---4---5-|
D|-5--5-5--5-5--5-5--5-|---2---3---4---5-|
      .    .    .


Interlude

E|------------------|----------------|
B|------------------|----------------|
G|------------------|----------------|
D|--------3---5--3--|-5--3--5--3-5-6-|
A|----3-4---4-3--1--|-3--1--3--1-3-4-|
D|-5----------------|----------------|

E|------------------|-------------------|
B|------------------|-------------------|
G|------------------|---R---R---R---R---|
D|--------3---5--3--|-5---2---3---4---5-|
A|----3-4---4-3--1--|-3---0---1---2---3-|
D|-5----------------|-------------------|


------------
Description:
------------
.   - palm mute
R   - pause


tabbed by PelzR
Suggest correction
Give kudos to tab author, rate the tab!
1 2 3 4 5
comments
print report bad tab
guest
You may want to rate the tab now too:
select rating
Wanna post a correction for this tab? Suggest correction