Oops, an error
Loading. Please wait.

Here Comes Forever Tab

by R5
3,387 views 6 this week
no commentswrite comment
1 2 3 4 5
accurate
x 4
add to favorites
launch autoscroll
font size
0
reset
how to read this tab
guitar tuner
Tab Pro tools
  • play this tab
  • loop segment
  • change instrument
  • show fretboard
  • metronome
×
Best way to learn
"Here Comes Forever"
Autoscroll
slow
fast
+/-
esc
set tempo
stop
Contributor
Difficulty
novice
Song: Here Comes Forever
Artist: R5
Album: LOUD EP
Capo: Nope
Tuning: Standard
Check out "Lost In Love" and "Elevate" by Big Time Rush (I made those :D)


Intro:

e-5-3-0-0---0---1------|
B------3-1-3-1-3-3-----|
G----------------------|
D----------------------|
A----------------------|
E----------------------|

e-5-3-0-0---0---0------|
B------3-1-3-1-3-1-----|
G----------------------|
D----------------------|
A----------------------|
E----------------------|

Rocky:
I'm like that boom box, outside of your window
I'm that Delorean rolling past 88
And where we're going, girl
Won't be needing roads, cuz
e-5-3-0-0--------------|
B------3-1-------------|
G----------------------|
D----------------------|
A----------------------|
E----------------------|
This ain't no 50 first dates

Ross:
I'm talking about starting out as friends
I'm talking about real and not pretend
I'm talking about roles of a life time
You and I can even write the end
Yeah

Rocky/Ross/Rydel:
Here comes that movie scene
One you hate so cliché
That moment when we kissed
By the lake, pouring rain
I ain't no Superman
But I can change your world

Riker/Ratliff:
Oo oo oo oo oo oo

e-5-3-0-0--------------|
B------3-1-------------|
G----------------------|
D----------------------|
A----------------------|
E----------------------|

Rocky/Ross/Rydel:
Here comes forever, girl

Riker/Ratliff:
Oo oo oo oo oo oo

e-5-3-0-0--------------|
B------3-1-------------|
G----------------------|
D----------------------|
A----------------------|
E----------------------|

Rocky/Ross/Rydel:
Here comes forever

Riker/Ratliff:
Oo oo oo oo oo oo

e-5-3-0-0--------------|
B------3-1-------------|
G----------------------|
D----------------------|
A----------------------|
E----------------------|

Ross/Rydel:
Here comes forever, girl

Rocky:
This ain't no remake of a Romeo story
Ain't no werewolf trying to steal you away
I'll be your A-list, be the man on the moon, cuz
e-5-3-0-0--------------|
B------3-1-------------|
G----------------------|
D----------------------|
A----------------------|
E----------------------|
Me and you outer space

Ross:
I'm talking about starting out as friends
I'm talking about real and not pretend
I'm talking about roles of a life time
You and I can even write the end
Yeah

Rocky/Ross/Rydel:
Here comes that movie scene
One you hate so cliché
That moment when we kissed
By the lake, pouring rain
I ain't no Superman
But I can change your world

Riker/Ratliff:
Oo oo oo oo oo oo

e-5-3-0-0--------------|
B------3-1-------------|
G----------------------|
D----------------------|
A----------------------|
E----------------------|

Rocky/Ross/Rydel:
Here comes forever, girl

All:
Na na na na na na
Na na na na na na
Na na na na na na
Na na na na na na
Na na na na na na
Na na na na na na
Na na na na na na

Ross:
Let's go home together
Play our roles forever
Let's grow old together
Here comes
Here comes
Here comes forever, baby

(Break)

Rocky/Ross/Rydel:
Here comes that movie scene
One you hate so cliché
That moment when we kissed
By the lake, pouring rain
I ain't no Superman
But I can change your world

Riker/Ratliff:
Oo oo oo oo oo oo

e-5-3-0-0--------------|
B------3-1-------------|
G----------------------|
D----------------------|
A----------------------|
E----------------------|

Rocky/Ross/Rydel:
Here comes forever, girl

Riker/Ratliff:
Oo oo oo oo oo oo

e-5-3-0-0--------------|
B------3-1-------------|
G----------------------|
D----------------------|
A----------------------|
E----------------------|

Rocky/Ross/Rydel:
Here comes forever

Riker/Ratliff:
Oo oo oo oo oo oo

e-5-3-0-0--------------|
B------3-1-------------|
G----------------------|
D----------------------|
A----------------------|
E----------------------|

Ross:
(Forever and ever and ever and ever)
Here comes forever, girl
comments
print report bad tab
I want to post or [tab]
guest
You may want to rate the tab now too:
select rating
Please do not post tabs as comments. Select "correction" instead!