Oops, an error
Loading. Please wait.

I Know You Got Away solo tab

version 1
version 1

Solo

  • Note that they play this song on G live, while the record version is on A.
by R5
673 views 9 this week
2 commentsread comments
1 2 3 4 5
1 last vote to show rating
add to favorites
×
Save as Personal and add changes to this tab that will be seen only by you. Learn more ›
×
You can save this tab as Personal to edit and correct it or add notes. All changes will be seen only by you. Learn more »
launch autoscroll
font size
0
reset
how to read this tab
guitar tuner
edit
Autoscroll
slow
fast
+/-
esc
set tempo
stop
Author
Difficulty
About this tab version
Note that they play this song on G live, while the record version is on A. Was this info helpful? Yes No
This is the guitar break that Ross and Rocky make after the second chorus of the song when they
perform it live.

For this riff, use a D shape starting on the 7th fret
Ross perfoms this riff 4 times
Rocky doesn't accompany yet

e|----------7-----|-----------------------------------------------------------|
B|------8-----8---|----8----10--8---------------------------------------------|
G|----7---7-------|--7---7----------------------------------------------------|
D|----------------|-----------------------------------------------------------|
A|----------------|-----------------------------------------------------------|
E|----------------|-----------------------------------------------------------|

After Ross plays that riff 4 times, he begins to "go up" through the fretboard; for this part,
you only need to move the note on the G string
Rocky doesn't accompany yet

e|----------7----|--------7----|--------7----|-------------7---------------|
B|------8-----8--|---8-------8-|----8------8-|------8---------8------------|
G|----7---7------|-8---8-------|--9---9------|--10-----10------------------|
D|---------------|-------------|-------------|-----------------------------|
A|---------------|-------------|-------------|-----------------------------|
E|---------------|-------------|-------------|-----------------------------|

After that riff, Ross goes down one note on the G string and then he keeps playing
the notes of an Em chord, 4 times

e|-----------7--------|
B|-------8-----8------|
G|-----9---9----------|
D|--------------------|
A|--------------------|
E|--------------------|

While Ross is playing that arpeggio, Rocky plays this lick

e|----------------------------|------------------------------------------|
B|---8-7----------------------|--------------------------8/10--8~--------|
G|--------9-7-----------------|----------------------7-9-----------------|
D|------------9-7-5-----------|-------------5--7-7/9---------------------|
A|------------------7-5-------|---------5-7------------------------------|
E|----------------------7-5-3-|-3-5-5/7----------------------------------|

Then, Ross starts to go down the fretboard, only in the G note

e|--------7----|--------7---|-------7---|-------7---|----------7-----|---------7----------7--|
B|----8-----8--|----8-----8-|---8-----8-|---8-----8-|-----8-------8--|----8-------8-------8--|
G|--9---9------|--8---8-----|-7---7-----|-6---6-----|--5-----5-------|-5-----5------------5--|
D|-------------|------------|-----------|-----------|----------------|-----------------------|
A|-------------|------------|-----------|-----------|----------------|-----------------------|
E|-------------|------------|-----------|-----------|----------------|-----------------------|

While Ross is playing that, Rocky plays a little progression over E, D#, D, C# and C

e|------------|-----------|-----------|----------|----------------------|
B|------------|-----------|-----------|----------|----------------------|
G|----9---9-9-|---8---8-8-|---7---7-7-|---6---6-6|----5---5-5-----------|
D|------------|-----------|-----------|----------|----------------------|
A|--7---7-----|-6---6-----|-5---5-----|-4---4----|--3---3---------------|
E|------------|-----------|-----------|----------|----------------------|

After the C chord, Rocky plays a quick lick

e|----------------------------------|
B|----------------------------------|
G|-------------------5-7-7/8~-------|
D|-----------5---5-7----------------|
A|---3-5-5/7---7--------------------|
E|----------------------------------|


After that, they will make a lick over the Em pentatonic at the same time

Ross' part

e|----------------------------------------|--------------------------------|
B|----------------------------------------|-13-12~----13-12~----13-12~-----|
G|---------------------------12----12-14--|--------12--------12------------|
D|---------------12----12-14----14--------|--------------------------------|
A|--10-12-12/14-----14--------------------|--------------------------------|
E|----------------------------------------|--------------------------------|

Rocky's part

e|---------------------------------|-----------------------------------|
B|---------------------------------|-----------------------------------|
G|---------------------------12----|12-14-12~-------14-12~-------------|
D|---------------12----12-14----14-|---------14-12~--------------------|
A|--10-12-12/14-----14-------------|-----------------------------------|
E|---------------------------------|-----------------------------------|


Ross' second part
e|--------------|-------------|-----------------------------------------|
B|--------------|-------------|-13-12~----13-12~----13-12~--------------|
G|--------------|---------12--|--------12--------12---------------------|
D|--------------|--12-14------|-----------------------------------------|
A|--10-12-12/14-|-------------|-----------------------------------------|
E|--------------|-------------|-----------------------------------------|

Rocky's second part
e|--------------|------------|----------------------------------|
B|--------------|------------|----------------------------------|
G|--------------|---------12-|-14--12~---------14--12~----------|
D|--------------|--12-14-----|--------14--12~-------------------|
A|--10-12-12/14-|------------|----------------------------------|
E|--------------|------------|----------------------------------|

They will keep playing simultaneously this riffs

Ross' part
e|-----------------------------------------|
B|-----------------------------------------|
G|----5-4----------------------------------|
D|---------7-5-----------------------------|
A|-------------7--7\6-6\5-5\4-4\3~---------|
E|-----------------------------------------|

Rocky's part
e|---------------|-----------------|-------------------------------------------|
B|---------------|-----------------|-------------------------------------------|
G|-----9-7-------|-----------------|-------------------------------------------|
D|---------9-7-5~|-5/7~-7/9~-9/12~-|-12-12h14-12~-12h14--12--------------------|
A|---------------|-----------------|------------------------14-12~-------------|
E|---------------|-----------------|-------------------------------------------|


Again, I figure this out by ear, so it may not be the exact thing they play
Have fun playing!

*****************************************************

/ Slide Up
\ Slide Down
~ Vibrato

*****************************************************

            
            
Suggest correction
Creating personal tab
Creating personal tab
You can edit any tab online and save it as your Personal.

You can edit, replace or remove any tab part or add personal notes – all changes will be seen only by you.

Personal tabs can be accessed anytime from any device, even offline.
Learn more »
Give kudos to tab author, rate the tab!
1 2 3 4 5
comments
print report bad tab
2 comments total.
0 reply
amzu1281 16 Dec 19, 2016 11:14 AM

Great job! Thanks for that tab

0 reply
juaneuler 85 Dec 20, 2016 02:44 PM

Thanks for the feedback!

guest
You may want to rate the tab now too:
select rating
Wanna post a correction for this tab? Suggest correction