Oops, an error
Loading. Please wait.

Theres A Ghost In My House Bass Tab

2,705 views 1 this week
no commentswrite comment
1 2 3 4 5
please rate
add to favorites
launch autoscroll
font size
0
reset
guitar tuner
Autoscroll
slow
fast
+/-
esc
set tempo
stop
Help us to improve Ultimate-Guitar.com Take our survey!
×
Author
Difficulty
intermediate
Theres a Ghost In My House
Single recorded by R.Dean Taylor in 1966 but didn’t chart in UK
Until 1974 due to popularity with The Northern Soul Scene
Bass performance possible Bob Babbitt. Tab by bass50611
Fairly straight forward song. Comments at bass254@btinternet.com 

Intro:
G|--------------------------------------------------------------
D|--------------------------------------------------------------
A|-3-4--4-4--4-4--4-4---3-4--4-4--4-4--4-4---6-7--7-7--7-7--7-7-
E|--------------------------------------------------------------

G|--------------------
D|--------------------
A|-6-7--7-7--7-7--7-7-
E|--------------------

Verse:
G|-------------------------------------------------------------------
D|------------7--7-5--5---------------------------7--7-5--5----------
A|--------5--5---------5--5-7---7-7-----------5--5---------5--7--7-7-
E|-5--5-5----------------------7-7-7---5--5-5------------------------

G|--------------------------------------------------------
D|--------------------------------------------------------
A|-5-4--2--2-2---------4--4-4-----------------------------
E|-------------4--4-4----------4--4-4---5--5-5--4--2--2-2-

Chorus:
G|----------------------------------------------------------
D|----------------------------------------------------------
A|-4--4-4--4-4--4-4---3-4--4-4--4-4--4-4---7--7-7--7-7--7-7-
E|----------------------------------------------------------

G|--------------------
D|--------------------
A|-6-7--7-7--7-7--7-7-
E|--------------------

Repeat Verse:

Repeat Chorus: (Play x2)

Repeat Verse 

Repeat Chorus to Fade/End:

Suggest correction
Give kudos to tab author, rate the tab!
1 2 3 4 5
comments
print report bad tab
guest
You may want to rate the tab now too:
select rating
Please do not post tabs as comments. Select "correction" instead!