Oops, an error
Loading. Please wait.

9-9 Tab

version 1
version 1

Whole song

Interactive

1,199 views 12 this week
no commentswrite comment
1 2 3 4 5
excellent!
x 2
add to favorites
launch autoscroll
font size
0
reset
how to read this tab
guitar tuner
Tab Pro tools
  • play this tab
  • loop segment
  • change instrument
  • show fretboard
  • metronome
Autoscroll
slow
fast
+/-
esc
set tempo
stop
Contributor
------------------------------------------------------------------------
			     9-9 - REM
------------------------------------------------------------------------
Tabbed by: Barnaby Wilde
Email:


Bass intro:
e|------------------|
B|------------------|
G|------------------|
D|------------------|
A|--4-5-5>7-7-5<4-4-|
E|-5-5-5>>7<<<5-----|

Guitar intro over bass:
e|--0-0-2-2>3--3--3--5-0----------|
B|-3-3---3---3--3--3--------------|
G|------------4--4--4-------------|
D|--------------------------------|
A|--------------------------------|
E|--------------------------------|

Verse:
Scratch muted bar 7 and hit harmonics between chord and riffs.
e|-----7-7-7-7-7--7--7--7-7---------------|
B|-----9-9-9-9-9-10-10-10-9--12-12>13<12--|
G|-----9-9-9-9-9--9--9--9-9---------------|
D|-7-7-9-9-9-9-9--9--9--9-9---------------|
A|-7-7-7-7-7-7-7--7--7--7-7---------------|
E|-7-7-7-7-7-7-7--7--7--7-7---------------|

e|-----7-7-7-7-7--7--7--7-7-----------------|
B|-----9-9-9-9-9-10-10-10-9--10-7-10-7-10-7-|
G|-----9-9-9-9-9--9--9--9-9-----------------|
D|-7-7-9-9-9-9-9--9--9--9-9-----------------|
A|-7-7-7-7-7-7-7--7--7--7-7-----------------|
E|-7-7-7-7-7-7-7--7--7--7-7-----------------|

			                             Harmonics:
e|-----7-7-7-7-7--7--7--7-7--9-8-6--|
B|-----9-9-9-9-9-10-10-10-9--9-8-6--|
G|-----9-9-9-9-9--9--9--9-9--9-8-6--|
D|-7-7-9-9-9-9-9--9--9--9-9--9-8-6--|
A|-7-7-7-7-7-7-7--7--7--7-7--9-8-6--|
E|-7-7-7-7-7-7-7--7--7--7-7--9-8-6--|

Chorus x2: 
e|-0--0--0--0------------|
B|-7--5--3--5------------|
G|-0--0--4--0------------|
D|-9--7--5--7------------|
A|-9--7--5--7------------|
E|-0--0--0--0------------|

Bridge x2 (Pick and slide):
e|-5--7--10<7<5--7----7---7-|
B|-3--5---8<5<3--5----------|
G|-4--6---9<6<4--6-4>6--4>6-|
D|--------------------------|
A|--------------------------|
E|--------------------------|
comments
We did not receive enough feedback on this tab! Please rate:
print report bad tab
1 2 3 4 5
I want to post or [tab]
guest
You may want to rate the tab now too:
select rating
Please do not post tabs as comments. Select "correction" instead!