Oops, an error
Loading. Please wait.

Ages Of You Tab

874 views 6 this week
no commentswrite comment
1 2 3 4 5
please rate
add to favorites
launch autoscroll
font size
0
reset
how to read this tab
guitar tuner
Tab Pro tools
  • play this tab
  • loop segment
  • change instrument
  • show fretboard
  • metronome
Autoscroll
slow
fast
+/-
esc
set tempo
stop
Contributor
Difficulty
intermediate
Tabbed by:  ChiTownStrummer

Tuning:  Standard

Intro starts with drums, the the recurring riff:

e|-----0----0---0----0-------------------------------------------------------|
B|--2----0--------0----------------------------------------------------------|
G|------------2--------------------------------------------------------------|
D|---------------------------------------------------------------------------|
A|---------------------------------------------------------------------------|
E|---------------------------------------------------------------------------|

Verses:  Played fast, accentuating the beats indicated
 A    ^               ^                           ^              ^
e|-----------------------------------------------------------------------------|
B|-----------------------------------------------------------------------------|
G|-----------------------------------------------------------------------------|
D|--2--2--2--2--2--2--2--2--2--2--2--2--2--2--2--2-----------------------------|
A|--0--0--0--0--0--0--0--0--0--0--0--0--0--0--0--0-----------------------------|
E|-----------------------------------------------------------------------------|

 E   ^                ^                     let ring-----
e|--------------------------------0----0----0----0---------------------------|
B|-----------------------------2----0---------0------------------------------|
G|---------------------------------------2-----------------------------------|
D|---------------------------------------------------------------------------|
A|--2--2--2--2--2--2--2--2---------------------------------------------------|
E|--0--0--0--0--0--0--0--0---------------------------------------------------|

Play 4 times for first verse.  Then play,
Pre-chorus:  First chord inversions play sharply, 2nd inversions are strummed
 D                                         E                                 D           
                   E
e|--5--5--------5--5----7--7--------7--7---5--5--------5--5--7--7--------7--7-----|
B|--7--7--7--7--7--7----9--9--9--9--9--9---7--7--7--7-7--7---9--9--7--7-9--9------|
G|--7--7--7--7--7--7----9--9--9--9--9--9---7--7--7--7-7--7---9--9--7--7-9--9------|
D|--------7--7----------------9--9----------------7--7--------------7--7----------|
A|--------------------------------------------------------------------------------|
E|--------------------------------------------------------------------------------|

 D (strum 2 measures)      E (2 measures)  D (2 measures)  E (let ring)
e|--2-----------------0-------------2------------0----------0---0---0---0----|
B|--3-----------------0-------------3------------0--------2---0-------0------|
G|--2-----------------1-------------2------------1----------------2----------|
D|--0-----------------2-------------0------------2---------------------------|
A|---------------------------------------------------------------------------|
E|---------------------------------------------------------------------------|

Chorus:
 F#m            E                A               Asus4   A            F#m       E        
       A              Asus4    A
e|--2--2---0--0--0---0--0--0--0-----0--0----2--2---0--0--0---0--0--0--0-----0--0-----|
B|--2--2---0--0--0---2--2--2--3-----2--2----2--2---0--0--0---2--2--2--3-----2--2-----|
G|--2--2---1--1--1---2--2--2--2-----2--2----2--2---1--1--1---2--2--2--2-----2--2-----|
D|--4--4---2--2--2---2--2--2--2-----2--2----4--4---2--2--2---2--2--2--2-----2--2-----|
A|--4--4---2--2--2---0--0--0--0-----0--0----4--4---2--2--2---0--0--0--0-----0--0-----|
E|---------0--0--0----------------------------------0--0--0--------------------------|

 F#m            E                A               Asus4   A           E-let ring
e|--2--2---0--0--0---0--0--0--0-----0--0---0-----0-----0----0----0-----0--------|
B|--2--2---0--0--0---2--2--2--3-----2--2---0--------2----0----------0-----------|
G|--2--2---1--1--1---2--2--2--2-----2--2---1------------------2-----------------|
D|--4--4---2--2--2---2--2--2--2-----2--2---2------------------------------------|
A|--4--4---2--2--2---0--0--0--0-----0--0---2------------------------------------|
E|---------0--0--0--------------------------0-----------------------------------|

Then play Verse 4 times for 2nd verse.
Then play Pre-Chorus.
Then play Chorus.
Then play Bridge (strum each chord once and let ring):
       E           F#m        E        F#m      E       F#m       E
e|--0--------2-----0-----2-----0-----2-----0----0-----0-----0----0-----0-----|
B|--0--------2-----0-----2-----0-----2-----0-------0-----2----------0--------|
G|--1--------2-----1-----2-----1-----2-----1-------------------2-------------|
D|--2--------4-----2-----4-----2-----4-----2---------------------------------|
A|--2--------4-----2-----4-----2-----4-----2---------------------------------|
E|--0--------2-----0-----2-----0-----2-----0---------------------------------|

Play Verse 4 times for last verse.
Then play Pre-Chorus.
Then play Chorus twice.
End on:
                                         let ring.....
e|-0---0---0---0---0--2--|
B|---2---0-------0----2--|
G|-----------2--------2--|
D|--------------------4--|
A|-----------------------|
E|-----------------------|

| /  slide up
| \  slide down
| h  hammer-on
| p  pull-off
| ~  vibrato
| +  harmonic
| x  Mute note
comments
We did not receive enough feedback on this tab! Please rate:
print report bad tab
1 2 3 4 5
I want to post or [tab]
guest
You may want to rate the tab now too:
select rating
Please do not post tabs as comments. Select "correction" instead!