Oops, an error
Loading. Please wait.

Around The Sun Bass Tab

517 views 3 this week
no commentswrite comment
1 2 3 4 5
accurate
x 1
add to favorites
launch autoscroll
font size
0
reset
guitar tuner
Tab Pro tools
  • play this tab
  • loop segment
  • change instrument
  • show fretboard
  • metronome
Autoscroll
slow
fast
+/-
esc
set tempo
stop
Song: Around The Sun
Artist: REM
Album: Around The Sun
Tabbed By: MrOoze (Mrooze@yahoo.com)

Comments and corrections welcome.
Tuning is standard.
/ = Slide up
\ = Slide down
h = Hammer


"I want the sun..."
  1   +   2   +   3   +   4   +    1   +   2   +   3   +   4   +   
G|--------------------------------|------------------------------7-|
D|--------------------------------|--------------------------7-79--|
A|--------------------------------|--------------------------------|
E|--------------------------------|--------------------------------|

G|9---------------7---------7-----|--7---7---------6-----------6---|
D|--------------------------------|7---------------------7---------|
A|--------------------------------|--------------------------------|
E|--------------------------------|--------------------------------|

G|------9---------7-9---7---------|--7---7-----7-------------------|
D|9-------------------------------|7---7-----7---------------------|
A|--------------------------------|--------------------------------|
E|--------------------------------|----------------5-5-5-5-5---5-\-|


"Hold on, world..."
  1   +   2   +   3   +   4   +    1   +   2   +   3   +   4   +   
G|--------------------------------|--------------------------------|
D|--------------------------------|0-----0-----0-----2---2-----2---|
A|--------------0-2-----2-----2-4-|----------------2---------------|
E|3-----3-----3-------------------|--------------------------------|

G|--------------------------------|--------------------------------|
D|--------------------------------|0-----0-----0-----2---4---2-----|
A|--------------0-2-----2---0-2-4-|--------------4-2---------------|
E|3-----3-----3-------------------|--------------------------------|

G|--------------------------------|--------------------------------|
D|--------------------------------|0-----0-----0-----2---2-----2---|
A|--------------0-2-----2---0-2-4-|--------------4-2---------------|
E|3-----3-----3-------------------|--------------------------------|

G|--------------------------------|14----\-------------------------|
D|--------------------------------|--------------------------------|
A|3-----3-----3-0-----------------|----------------13-----\--------|
E|----------------3-----3-----3---|--------------------------------|


"If I jumped into the ocean..."
  1   +   2   +   3   +   4   +    1   +   2   +   3   +   4   +   
G|----------------0-----0---------|--------------------------------|
D|2-----2-----2-4-------------4-2-|0-----0-----------4---4-----4---|
A|--------------------------------|----------------4---------------|
E|--------------------------------|--------------------------------|

G|----------------0-----0---------|7---------------2---------------|
D|2-----2-------4---------------7-|--7---0-----0-----2-----------0-|
A|--------------------------------|----------------------0-----02--|
E|--------------------------------|--------------------------------|

G|----------------0-----0---------|--------------------------------|
D|2-----2-----2-4-------------4-2-|0-----0-----0-----4---4-----4---|
A|--------------------------------|----------------4---------------|
E|--------------------------------|--------------------------------|

G|----------------0-----0---0-----|--------------------------------|
D|2-----2-------4-------------4-2-|0-----0---0---------------------|
A|--------------------------------|------------4-2-0------0-----0--|
E|--------------------------------|--------------------------------|


"Hold on, world..."
  1   +   2   +   3   +   4   +    1   +   2   +   3   +   4   +   
G|--------------------------------|--------------------------------|
D|--------------------------------|0-----0-----0-----2---2-----2---|
A|--------------0-2-----2---0-2-4-|--------------4-2---------------|
E|3-----3-----3-------------------|--------------------------------|

G|--------------------------------|--------------------------------|
D|--------------------------------|0-----0-----0-----2---4---2-----|
A|--------------0-2-----2---0-2-4-|--------------4-2---------------|
E|3-----3-----3-------------------|--------------------------------|

G|--------------------------------|--------------------------------|
D|--------------------------------|0-----0-----0-----2---2-----2---|
A|--------------0-2-----2-----2-4-|--------------4-2---------------|
E|3-----3-----3-------------------|--------------------------------|

G|--------------------------------|
D|--------------------------------|
A|3-----3---3-2-0--------------3--|
E|----------------3-----3h5-------|


"... around the sun ..."
  1   +   2   +   3   +   4   +    1   +   2   +   3   +   4   +   
G|----------------------2---------|------5---4---------------------|
D|0---0-4---0-----0---0-----0-----|0---0-----------0---0-5---4-----| (x6)
A|--------------------------------|--------------------------------|
E|--------------------------------|--------------------------------|

G|19\---17\-------14\---12\-------|11\---9\--------7\----5\--------|
D|--------------------------------|--------------------------------|
A|--------------------------------|--------------------------------|
E|--------------------------------|--------------------------------|

G|--------------------------------|--------------------------------|
D|2\----0-------------------------|--------------------------------|
A|----------------4-----2---------|0-------------------------------|
E|--------------------------------|--------------------------------|


"Let my dreams..."
  1   +   2   +   3   +   4   +    1   +   2   +   3   +   4   +   
G|--------------------------------|--------------------------------|
D|0---------------3---------------|----------------2---------------|
A|--------------------------------|3-------------------------------|
E|--------------------------------|--------------------------------|

G|--------------------------------|--------------------------------|
D|0---------------3---------------|--------------------------------|
A|--------------------------------|3-------------------------------|
E|--------------------------------|----------------3---------------|

G|----------------0---------------|----------------0---------------|
D|2-------------0-----------------|2-------------0-----------------|
A|--------------------------------|--------------------------------|
E|--------------------------------|--------------------------------|

G|----------------0---------------|--------------------------------|
D|2-------------0-----------------|3-------------------------------|
A|--------------------------------|--------0---2---3---------------|
E|--------------------------------|--------------------------------|

G|--------------------------------|--------------------------------|
D|3-------------------------------|3-------------------------------|
A|--------0---2---3---------------|--------0---2---3---------------|
E|--------------------------------|--------------------------------|
comments
We did not receive enough feedback on this tab! Please rate:
print report bad tab
1 2 3 4 5
I want to post or [tab]
guest
You may want to rate the tab now too:
select rating
Please do not post tabs as comments. Select "correction" instead!