Oops, an error
Loading. Please wait.

Automatic For The People Tab

1,908 views 24 this week
no commentswrite comment
1 2 3 4 5
please rate
add to favorites
launch autoscroll
font size
0
reset
how to read this tab
guitar tuner
Tab Pro tools
  • play this tab
  • loop segment
  • change instrument
  • show fretboard
  • metronome
×
Best way to learn
"Automatic For The People"
Autoscroll
slow
fast
+/-
esc
set tempo
stop
Contributor
-----------------------------------------------------------------------
                DRIVE - REM
-----------------------------------------------------------------------
Tabbed by: Barnaby Wilde
Email:

Verse:
Guitar 1
e|---1--1--1---1-------1--1-------------1--3-|
B|----3--3---3----------3--3------------3--3-|
G|--2--2--2-0-0-------2--2--2-0-2h-0-0--2--0-|
D|-0------------0----0--------------3---0--0-|
A|----------------x3-----------------------2-|
E|-----------------------------------------3-|

Verse:
Guitar 2
e|----------------------------|
B|----------------------------|
G|----------------------------|
D|-0-----5-3-0----------------|
A|----------------------------|
E|----------------------------|

Chorus:
e|-1--0--3----0----1--------------|
B|-1--1--3----0----3--------------|
G|-2--2--0----0----2--------------|
D|-3--2--0----2----0--------------|
A|-3--0--2----2-------------------|
E|-1--0--3----0-------------------|

Lead:
Chords: C-Dm (x2) 
e|--------------------------------------------|
B|--------------------------------------------|
G|-14-12-10-0--0--0--0---0---14-12-10-0-10-0--|
D|---------12-10-10-12h-10-----------12---12--|
A|--------------------------------------------|
E|--------------------------------------------|

Lead:
Chords: C-G-Dm  
e|-------------------------------------|
B|-------------------------------------|
G|-14-12-10-0--0--0--0---0--0-2-0------|
D|---------12-10-10-12h-12-------3-0---|
A|-------------------------------------|
E|-------------------------------------|

End Distortion:
e|------------------|
B|-------------3----|
G|-9---9---0---2----|
D|-9---9---0---0----|
A|-7---7------------|
E|-0---0------------|

End Pick:
e|---1--1--1------1--|
B|----3--3--3-3-3-3--|
G|--2--2--0-2-0-0-2--|
D|-0-----------2--0--|
A|-------------------|
E|-------------------|

-----------------------------------------------------------------------
                TRY NOT TO BREATHE - REM
-----------------------------------------------------------------------
Tabbed by: Barnaby Wilde
Email:

Verse Chord Strum
e|-0---0---0---0---0---0---0---0---|
B|-3---1---1---3---3---1---1---3---|
G|-2---2---0---0---2---2---0---0---|
D|-0---2---2---0---0---2---2---0---|
A|-----0---3---2-------0---3---2---|
E|-----0---0---3-------0---0---3---|

Verse Fill #1
e|-----------------3--------3-0--|
B|-----------------3-----------3-|
G|-----------------2-------------|
D|-------------------------------|
A|-------------------------------|
E|-------------------------------|

Verse Fill #2
e|----------------------------|
B|-------------------8<7-5----|
G|-5>7-----4<2-0-5>7------7---|
D|----7-4^0---------7---------|
A|----------------------------|
E|----------------------------|

Bridge to Chorus Chords
e|-0---0---0---0---0---0------------|
B|-1---1---1---1---1---1------------|
G|-2---2---0---2---0---0------------|
D|-2---4---2---2---2---2------------|
A|-0---0---0---0---3---3------------|
E|-0---0---0---0---0---3------------|

Bridge to Chorus Fill
e|-0-2-3-2-0---3-2-0------|
B|------------------0-3---|
G|------------------------|
D|------------------------|
A|------------------------|
E|------------------------|

Chorus Chords (Go to C chord before Verse)
e|-3---2---3---2---0---0---0---0----0--|
B|-3---3---3---3---1---1---1---1----1--|
G|-0---2---0---2---2---2---0---2----0--|
D|-0---0---0---0---2---4---2---2----2--|
A|-2-------2-------0---0---0---0----3--|
E|-3-------3-------0---0---0---0----0--|

Chorus Fill
e|----------0-2-3-2-0----------|
B|-------------------0---------|
G|-5>7-5>7------------5>7-5>7--|
D|----7---7--------------7---7-|
A|-----------------------------|
E|-----------------------------|

Chorus Walk Down Fill #2 (Later Choruses)
e|-------------|
B|-------------|
G|-------------|
D|-5>7-5-4-2---|
A|-------------|
E|-------------|

Middle Bridge 
e|-0---0-0-0--0-0-0----0---|
B|-0---1-1-1--1-1-1----0---|
G|-0---2-2-2--2-2-2----0---|
D|-2---2-0-2h-2-0-2h---2---|
A|-2---0-0-0--0-0-0----2---|
E|-0---0-0-0--0-0-0----0---|

e|-0---0-0-0--0-0-0----0---|
B|-0---1-1-1--1-1-1----1---|
G|-0---2-2-2--2-2-2----0---|
D|-2---2-0-2h-2-0-2h---2---|
A|-2---0-0-0--0-0-0----3---|
E|-0---0-0-0--0-0-0----0---|

Middle Bridge Feedback Notes
e|------------------------12----|
B|-----10------------------12<--|
G|-9--------9-------5---9-------|
D|--------------7---------------|
A|------------------------------|
E|------------------------------|

End on G

-----------------------------------------------------------------------
                THE SIDEWINDER SLEEPS TONITE - REM
-----------------------------------------------------------------------
Tabbed by: Barnaby Wilde
Email:

Chorus: Chords
e|-2---3---0---0------0---0---|
B|-3---3---1---1------1---0---|
G|-2---0---0---2------0---0---|
D|-0---0---2---2------2---2---|
A|-----2---3---0------3---2---|
E|-----3---0---0-x3---0---0---|

Chorus: Fill
e|--2-2-3------------0---0----|
B|-3-3---5-3-5-----1--1---0---|
G|------------x3----0---0-----|
D|---------------------2------|
A|----------------------------|
E|----------------------------|

Verse: 
e|--8----8----8----8----8----5---8---|
B|-10----8---10----8---10----5---8---|
G|-10----9---10----9---10----5---9---|
D|-10---10---10---10---10----7--10---|
A|--8---10----8---10----8----7--10---|
E|--8----8----8----8----8----5---8---|

Verse:
e|---2---2---0---0--------2---2---0---0--0------|
B|----3---3---1---1--------3---3---1---1-0------|
G|--4---4---2---2--------4---4---2---0---0------|
D|-4---4---2---2---x2---4---4---2---2----2------|
A|---------------------------------------2------|
E|---------------------------------------0------|

End after Chorus with D

-----------------------------------------------------------------------
                EVERYBODY HURTS - REM
-----------------------------------------------------------------------
Tabbed by: Barnaby Wilde
Email:

Verse
e|----2-----2-----3-----3------|
B|---3-3---3-3---3-3---3-3-----|
G|--2---2-2---2-0---0-0---0----|
D|-0-----0-----0-----0-----0---|
A|-----------------------------|
E|-----------------------------|

Transition/Chorus
e|---3--3---0-----0-----0-----0----|
B|--3--3-----0-----0---2-2---2-2---|
G|---------0--0--0--0-2---2-2---2--|
D|--------2-----2----2-----2-------|
A|-------2-----2-----------------2-|
E|-3--2----------------------------|

Bridge
e|----------------------------------------------|
B|----------------------------------------------|
G|-3---3-----4---4-4---------4---------2---2-2--|
D|-4---4-----4---4-4-----2---5---2-2-2-2---2-2--|
A|-4---4-(0)-2---2-2-----3---5---3-3-2----------|
E|-2---2------------(x2)-----3------------------|

End Distortion
e|-----------|
B|-----------|
G|-7----4----|
D|-7----5----|
A|-5----5----|
E|-0----3----|

-----------------------------------------------------------------------
                NEW ORLEANS INSTRUMENTAL NO. 1 - REM
-----------------------------------------------------------------------
Tabbed by: Barnaby Wilde
Email:

1st Part
e|---------------------------------------------|
B|---------------8--10-8-----------------------|
G|-7--9--7--2-0----------9-7-5-4-0-7--9--7--2--|
D|---------------------------------------------|
A|------------x2-------------------------------|
E|---------------------------------------------|

2nd Part
e|--------------------------------|
B|--------------------------------|
G|---------0---2----5---------5---|
D|----0-2p0--------5-7-5-2---5-7--|
A|-0-0----------------------------|
E|--------------------------------|

3rd Part
e|---------7-8-7b----------------|
B|-----8-10----------------------|
G|-7--9----------7--9--7--2-0----|
D|-------------------------------|
A|-------------------------------|
E|-------------------------------|

e|----------------------|
B|---------8------------|
G|-4----7-9-9-7-5-4-----|
D|--5-7------------5>7--|
A|-----5----------------|
E|----------------------|

-----------------------------------------------------------------------
                SWEETNESS FOLLOWS - REM
-----------------------------------------------------------------------
Tabbed by: Barnaby Wilde
Email:

Tune down a whole step 

Intro/ Bridge
d|-0---|
A|-0---|
F|-1---|
C|-2---|
G|-2---|
D|-0---|

Verse
d|-7---5------0---|
A|-7---5------0---|
F|-8---8------1---|
C|-9---6------2---|
G|-0---0------2---|
D|-0---0-x3---0---|

Chorus
d|-3---5---3---5---0---|
A|-3---5---5---7---0---|
F|-4---6---5---7---1---|
C|-5---7---5---7---2---|
G|-5---7---3---5---2---|
D|-3---5---3---5---0---|

Lead 
d|-7-10-7----------------0-5-7h-8-7-5-7--|
A|-------5-7h-5-0-0----------------------|
F|-----------------2-4h-4----------------|
C|---------------------------------------|
G|---------------------------------------|
D|---------------------------------------|

Lead 
d|---------------------0--12-|
A|-7-5-5-7h-5----------0-12--|
F|-----------6-4-------1-----|
C|---------------------2-----|
G|---------------------2-----|
D|--------------2b-2-0-0-----|

-----------------------------------------------------------------------
                MONTY GOT A RAW DEAL - REM
-----------------------------------------------------------------------
Tabbed by: Barnaby Wilde
Email:

Bouzouki Tuning: GDgd
Verse
g|-5-5---5>7-0--3----------5-5---5>7-0--3--3------|
d|-3--3--3>5-0---3-5-3-3-0-3--3--3>5-0---3--3--0--|
G|-0---0----------3----3-0-0---0----------3--3-0--|
D|-0-----------3-----------0-----------3----------|

g|-5-5---5>7-0--3------------0---0--0--0----|
d|-3--3--3>5-0---3-5-3-3-0----0---0-0---0-0-|
G|-0---0----------3----3-0--3---5---0-0--0--|
D|-0-----------3-----------3---5----0-------|

Chorus
g|-12-10-12-15-12-10-7-5-3-5---3---5---0-|
d|--0--0--0--0--0--0-0-0-0-0---3---5---0-|
G|--0--0--0--0--0--0-0-0-0-0---3---5---0-|
D|--0--0--0--0--0--0-0-0-0-0---3---5---0-|

-----------------------------------------------------------------------
                IGNORELAND - REM
-----------------------------------------------------------------------
Tabbed by: Barnaby Wilde
Email:

Intro/Chorus Chords with riff
e|-0---0---0---0---0---0------------0---|
B|-6---8---6---6---6---8---6-8<1-3--3---|
G|-7---7---7---7---7---7----------0-2---|
D|-0---0---0---0---0---0------------0---|
A|-0---0---0---0---0---0------------0---|
E|-0---0---0---0---0---0------------0---|

Verse Chords
e|-0---0---3---0---|
B|-3---1---3---0---|
G|-2---0---0---0---|
D|-0---0---0---2---|
A|-----3---2---2---|
E|-----0---3---0---|

Verse Fill
e|----------------------------------|
B|----------------------------------|
G|----------------------------------|
D|-0-5h-5-5-4h-0---0-5h-5-5-4h-0-7--|
A|--------------0-------------------|
E|----------------------------------|

Bridge to Chorus Chords
e|-0---0---|
B|-1---3---|
G|-0---0---|
D|-0---0---|
A|-3---5---|
E|-0---0---|

Bridge to Chorus sustained notes
e|---------|
B|---------|
G|-5-5>7---|
D|---------|
A|---------|
E|---------|

Middle Bridge
e|-0---0---1---0---|
B|-1---3---3---2---|
G|-0---0---3---2---|
D|-0---0---3---2---|
A|-3---2---1---0---|
E|-0---0---1---0---|

Middle Bridge sustained notes
e|-------------------------|
B|-------------------------|
G|-7---4---7-7b-7-7b-7-6---|
D|-------------------------|
A|-------------------------|
E|-------------------------|

-----------------------------------------------------------------------
                STAR ME KITTEN - REM
-----------------------------------------------------------------------
Tabbed by: Barnaby Wilde
Email:

Part 1
Open/Post Bridge
e|------------------------------------------|
B|------------------------------------------|
G|-4>5>7-7-7-7>9(<7-)7-9h-7-----7-9h-7------|
D|-------------------------7<5-5------7-5---|
A|------------------------------------------|
E|------------------------------------------|

Part 2
Chorus/End
e|------------------------------------|
B|-->10-8->10-8------>10-8------1>3-5-|
G|-7-----7-----9-7--7-----5-8-7-0-----|
D|----------------10------------------|
A|------------------------------------|
E|------------------------------------|

Part 3
Bridge
e|--5-3-0---5<3-0---------|
B|-1-----4-5-----1---4-3--|
G|----------------x3------|
D|------------------------|
A|------------------------|
E|------------------------|

-----------------------------------------------------------------------
                MAN ON THE MOON - REM
-----------------------------------------------------------------------
Tabbed by: Barnaby Wilde
Email:

Intro/Verse
e|-0-0-0-0>0--0--0<0---|
B|-1-1-1-1>3-3-3-3<1---|
G|-0-0-0-0>0-----0<0---|
D|-2-2-2-2>4-----4<2---|
A|-3-3-0-3>5-----5<3---|
E|-0-3-0-0>0-----0<0---|

Slide Open
e|-----------------|
B|----5---7---5----|
G|-3>5-5>7-7<5-5---|
D|-----------------|
A|-----------------|
E|-----------------|

Slide Alt Verse (Asp Line)
e|--------------------------|
B|-8------7-----5-----------|
G|--7>9----7-2>5-5----------|
D|--------------------------|
A|-----5>7---------3-0------|
E|--------------------3>8---|

Mandolin Verse
e|-0---0>0---0<0---|
a|-3---3>5---5<3---|
d|-2---2>4---4<2---|
g|-0---0>0---0<0---|

Mandolin Verse (Final Pick)
e|---0--0--0--|
a|--3--5--3-3-|
d|-2--4--2----|
g|------------|

Bridge to Chorus
e|-0---3---0---3---0---3-0-2---|
B|-1---3---1---3---1---3-1-3---|
G|-2---0---2---0---2---0-0-2---|
D|-2---0---2---0---2---0-2-0---|
A|-0---2---0---2---0---2-3-----|
E|-0---3---0---3---0---3-0-----|

Slide Bridge
e|-------------------------------|
B|-------10<8-10----10<8-10------|
G|-----------9--9<7-----9--9<7---|
D|-8>10-----------0----------0---|
A|-----10------------------------|
E|-------------------------------|

e|----------------------|
B|----5----7-7-7>8<7----|
G|-----5----7-7-----7---|
D|-3>5--5>7-------------|
A|----------------------|
E|----------------------|

Mandolin Bridge to Chorus
e|-0---3---5-3-0--0---3-0-2-3-2-3-|
a|-0---2----------0---2-3-0-------|
d|-2---0------(x2)2---0-2-0-------|
g|-5---0----------5---0-0-2-------|

Chorus
e|-3---0---0---2---3---0---2---|
B|-3---1---1---3---3---1---3---|
G|-0---2---0---4---0---0---2---|
D|-0---2---2---4---0---2---0---|
A|-2---0---3---2---2---3-------|
E|-3---0---0---2---3---0-------|

e|-3---0---0---2---0---0---|
B|-3---1---1---3---1---1---|
G|-0---2---0---4---2---0---|
D|-0---2---2---4---2---2---|
A|-2---0---3---2---0---0---|
E|-3---0---0---2---0---0---|

Slide Chorus
e|------------------------------------------|
B|-----------12<9--------8<7----------------|
G|---------------9----------7---------------|
D|-3>5>7>10<9-----3>5<2>4----3>5>7>10<9<7---|
A|------------------------------------------|
E|------------------------------------------|

Mandolin Chorus
e|-3-0-0-0-3-0-2-3-2-3-|
a|-2-0-3-5-2-3-0-------|
d|-0-2-2-4-0-2-0-------|
g|-0-5-0-4-0-0-2-------|

Middle Bridge
e|-0---2---|
B|-0---3---|
G|-0---2---|
D|-2---0---|
A|-2-------|
E|-0-------|

Middle Bridge Slide
e|---12----------------12-------------------|
B|->12-12--7-8-7----->12-12--7--7--7-8-7----|
G|--------------7-------------7--7------7---|
D|------->7---------------->7--7--7---------|
A|---------------(x2)-----------------------|
E|------------------------------------------|

Mandolin Middle Bridge
e|-0---2-3-2-0-|
a|-2---0-------|
d|-2---0-------|
g|-0---2-------|

End on Em


-----------------------------------------------------------------------
                NIGHTSWIMMING - REM
-----------------------------------------------------------------------
Tabbed by: Barnaby Wilde
Email:

Intro/Break:
L 2|g---g-b-|-------|g---g-b-|--------|
L 3|--------|c------|--------|d-------|
R 4|d-gab-g-|g------|d-gab-g-|d-------|

Verse: 
L 2|g--g-b--|--------|g--g-b--|----a---|
L 3|-------d|c---d---|-------d|c-------|
R 4|-gbg-gg-|---bbaFe|-gbg-gg-|---bbage|
R 5|-------d|dcc-----|-------d|dcc-----|

L 2|---g--|----a-b-|
L 3|c---c-|d----d--|
R 4|gaegae|gadggFeF|

End on g.

Intro:
e|-3---0---3---2--|
B|-3---3---3---3--|
G|-0---0---0---2--|
D|-0---2---0---0--|
A|-2---3---2------|
E|-3---0---3------|
Verse:
e|-3---0-2---3---0-0-0---3-2--|
B|-3---3-3---3---3-2-3---3-3--|
G|-0---0-2---0---0-2-0---2-2--|
D|-0---2-0---0---2-2-2---0-0--|
A|-2---3-----2---3-0-3--------|
E|-3---0-----3---0-0-0--------|

-----------------------------------------------------------------------
                FIND THE RIVER - REM
-----------------------------------------------------------------------
Tabbed by: Barnaby Wilde
Email:

Intro/ Break:
e|-----2-----2-----2-----2-------|
B|---3-3---3-3---3-3---3-3-------|
G|--2--2--0--2--2--2--0--2-------|
D|-0---0-2---0-0---0-2---0-------|
A|-------------------------------|
E|-------------------------------|

Verse
e|-2---1---0---3---2---1---0--------|
B|-3---3---3---3---3---3---3--------|
G|-2---2---0---0---2---2---0--------|
D|-0---0---2---0---0---0---2--------|
A|---------2---2-----------0--------|
E|---------0---3-----------0--------|

Chorus
e|-3---0---2---0---3---0---2---2---|
B|-3---2---3---3---3---2---3---1---|
G|-0---2---2---0---0---2---2---2---|
D|-0---2---0---2---0---2---0---0---|
A|-2---0-------2---2---0-----------|
E|-3---0-------0---3---0-----------|

End
Guitar 1
e|-----2---|
B|---3-3---|
G|--2--2---|
D|-0---0---|
A|---------|
E|---------|

End
Guitar 2
e|---5---|
B|--7-7--|
G|-7-----|
D|-------|
A|-------|
E|-------|
comments
We did not receive enough feedback on this tab! Please rate:
print report bad tab
1 2 3 4 5
I want to post or [tab]
guest
You may want to rate the tab now too:
select rating
Please do not post tabs as comments. Select "correction" instead!