Oops, an error
Loading. Please wait.

Camera Tab

1,189 views 6 this week
no commentswrite comment
1 2 3 4 5
excellent!
x 1
add to favorites
launch autoscroll
font size
0
reset
how to read this tab
guitar tuner
Tab Pro tools
  • play this tab
  • loop segment
  • change instrument
  • show fretboard
  • metronome
Autoscroll
slow
fast
+/-
esc
set tempo
stop
Contributor
------------------------------------------------------------------------
                        Camera - REM
------------------------------------------------------------------------
Tabbed by: Barnaby Wilde
Email:

Bass Intro
e|-------------------------------|
B|-------------------------------|
G|-------------------------------|
D|-------------------------------|
A|-5-5-7-8-5-7-7-------5---------|
E|--------------5-5-5-5----------|

Verse
e|------0------------0---0---0---|
B|-----3-3---3-----3--3---3---3--|
G|--2-2---2-0-0---0----0---0-----|
D|--0------3---0-2---------------|
A|-------------------------------|
E|-------------------------------|

Bridge to Chorus and Chorus
e|--0--0--------------0--3-3-3--3-3--2-2-2-3-5-3-2-0-0--------|
B|-3-3-3-3-3-2-2-2-2-3-3-3-3-3--3-3--3-3-3-3-3-3-3-3-1--------|
G|-----2-2-2-2-2-2-2-2---0-0-0--0-0--2-2-2-2-2-2-2-2-0--------|
D|-----2-2-2-2-2-2-2-2---0-0-0--0-0--0-0-0-0-0-0-0-0-2--------|
A|-----------------------2-0-2h-0-2h-----------------3--------|
E|-----------------------3-0-3h-0-3h-----------------0--------|


e|-0-0-0--0------2-2-2-3-5-3-2-0-3-3-3--3-3--2-2-2-3-5-3-2-0--|
B|-1-1-1-3-3-1-3-3-3-3-3-3-3-3-3-3-3-3--3-3--3-3-3-3-3-3-3-3--|
G|-0-0-0---------2-2-2-2-2-2-2-2-0-0-0--0-0--2-2-2-2-2-2-2-2--|
D|-2-2-2---------0-0-0-0-0-0-0-0-0-0-0--0-0--0-0-0-0-0-0-0-0--|
A|-3-3-3-------------------------2-0-2h-0-2h------------------|
E|-0-0-0-------------------------3-0-3h-0-3h------------------|

e|-0-0-0--0---------------0--------|
B|-1-1-1-3-3-1-3-2-2-2-2-3-3-2-3-0-|
G|-0-0-0---------2-2-2-2-2---------|
D|-2-2-2---------2-2-2-2-2---------|
A|-3-3-3---------------------------|
E|-0-0-0---------------------------|

Lead/ Intro to Last Verse
e|----------------------------------------|
B|-------10>15-13-10-10-12h-10--10-10-10--|
G|---7>10---------------------12----------|
D|--0-------------------------------------|
A|----------------------------------------|
E|----------------------------------------|



PRE-ROCKVILLE INTERLUDE
e|-------------------------------|
B|-------------2-----------------|
G|--3-3-3-3-1-3-3-3-3-3-3-1-1----|
D|-------------------------3-----|
A|-------------------------------|
E|-------------------------------|

e|-------------------------------|
B|-------------2----------2>4-2--|
G|--3-3-3-3-1-3-3-3-3-3-3------3-|
D|-------------------------------|
A|-------------------------------|
E|-------------------------------|

e|------------------------------------|
B|------------------------------------|
G|-1-1-3-3-3-1-3--1-------1-1--3-3-3--|
D|---------------3-1-1-1-3-3----------|
A|------------------------------------|
E|------------------------------------|
comments
We did not receive enough feedback on this tab! Please rate:
print report bad tab
1 2 3 4 5
I want to post or [tab]
guest
You may want to rate the tab now too:
select rating
Please do not post tabs as comments. Select "correction" instead!