Oops, an error
Loading. Please wait.

Chronic Town Tab

1,552 views 6 this week
no commentswrite comment
1 2 3 4 5
please rate
add to favorites
launch autoscroll
font size
0
reset
how to read this tab
guitar tuner
Tab Pro tools
  • play this tab
  • loop segment
  • change instrument
  • show fretboard
  • metronome
Autoscroll
slow
fast
+/-
esc
set tempo
stop
Contributor
------------------------------------------------------------------------
			    WOLVES, LOWER - REM
------------------------------------------------------------------------
Tabbed by: Barnaby Wilde
Email:
Intro/Verse
e|-0--0-------0--0--0-0------0--0---|
B|-8>10--------0--0----0------0-----|
G|-9>11-x3---9--8--6----6>8-8--8----|
D|-0--0--------------7--7>9-9-------|
A|----------------------------------|
E|----------------------------------|

Bridge to Chorus
e|-------0-0--0--0--0------0-0--0--0--0--|
B|-10-9-7---0--0--0--10-9-7---0--0--0----|
G|--------7--7--7--7--------6--6--6--6---|
D|---------------------------------------|
A|---------------------------------------|
E|---------------------------------------|

e|--0-0-0-0--|
B|-5-4-2-0---|
G|-----------|
D|-----------|
A|-----------|
E|-----------|

Chorus
e|-0---0---3---0--------------|
B|-2---5---3---1--------------|
G|-2---5---4---0--------------|
D|-2---5-------2--------------|
A|-0---0-------3--------------|
E|-0---0-------0--------------|


e|--3--3--3-3--3--3-3--3--3-3--3--3--|
B|---3--3----3--3----3--3----3--3----|
G|-4--5--5-4--5--5-4--5--5-4--4--4---|
D|-----------------------------------|
A|-----------------------------------|
E|-----------------------------------|

End Bridge:
e|---------------------------------------------------------|
B|-12/12-15/14-12/12/12-14/12-17/17-15/14-12/12/12-14/12---|
G|---------------------------------------------------------|

e|---------------------------------------------------------|
B|-17/17-15/14-12/12/12-14/12-17/17-15/14-12/12/12-14/12---|
G|---------------------------------------------------------|

End on Em.



------------------------------------------------------------------------
			     GARDENING AT NIGHT- REM
------------------------------------------------------------------------
Pre-Intro: x4
e|---------------------------------------------------------------------|
B|---------------------------------------------------------------------|
G|----2---3-2-0-2------------------------------------------------------|
D|-00---0--------------------------------------------------------------|
A|---------------------------------------------------------------------|
E|---------------------------------------------------------------------|

Intro and Outro: x4		      2nd Guitar: High e tuned to d
e|-3-2-0-0-0-------------------------------0-0-0-0-0-------------------|
B|-0-0-0-3-1-------------------------------8-7-5-3-1-------------------|
G|-0-0-0-0-0-----------------------------------------------------------|
D|-5-4-2-0-2-----------------------------------------------------------|
A|-------2-3-----------------------------------------------------------|
E|-------3-0-----------------------------------------------------------|

Verse: x2
D5-C-G(add B)
e|-0-0-0--00000000000000-----------------------------------------------|
B|-3-1-3--33333333222323-----------------------------------------------|
G|-2-0-4--00000000000000-----------------------------------------------|
D|---2-0---------------------------------------------------------------|
A|---3-2---------------------------------------------------------------|
E|---0-3---------------------------------------------------------------|

Chorus:
     "Gardening at night ... "
e|-0-0-0-0-------------------------------------------------------------|
B|-3-3-2-3-------------------------------------------------------------|
G|-2-0-2-2-------------------------------------------------------------|

Bridge: Picked x4
   "The neighbors go to bed at two ... "
e|-0-0-----------------------------------------------------------------|
B|-3-2-----------------------------------------------------------------|
G|-4-2-----------------------------------------------------------------|
Riff to Verse:
"..arranged ..."
e|-0000000000000000----------------------------------------------------|
B|-3333333322222220----------------------------------------------------|
G|-0000000000000000----------------------------------------------------|

Riff to Outro:
e|---------------------------------------------------------------------|
B|-3/5/6/5-------------------------------------------------------------|
G|-2/4/5/4-------------------------------------------------------------|
End:
e|-------3-------------------------------------------------------------|
B|-------3-------------------------------------------------------------|
G|-4-2-4-0-------------------------------------------------------------|
D|-------0-------------------------------------------------------------|
A|-------2-------------------------------------------------------------|
E|-------3-------------------------------------------------------------|

---------------------------------------------------------------------------
                      Carnival Of Sorts (Box Cars)- REM
---------------------------------------------------------------------------
Tabbed by: Barnaby Wilde
Email:
Intro/ Bridge
e|-----------------------|
B|----------------0------|
G|----0-0--------0-0-----|
D|-2-4-4-4-x3-2-4---4----|
A|-----------------------|
E|-----------------------|

Verse
e|-2---0-2-3---0-0-0---0------|
B|-3---0-3-3---2-2-0---2h-----|
G|-4---0-2-0---2-2-2---2------|
D|-4---0-0-0---2-2-2---2------|
A|-2---0---2---0-0-0---0------|
E|-2---0---3---0-0-0---0------|

Bridge to Chorus
e|-3---0---2---0-0-------3---0---------|
B|-3---2---3---2-2-3-2-0-3---2-3-2-0---|
G|-0---2---4---2-2-------0---2---------|
D|-0---2---4---2-2-------0---2---------|
A|-2---0---2---0-0-------2---0---------|
E|-3---0---2---0-0-------3---0---------|

Chorus
e|-2---3---0----------|
B|-3---3---2-3-2-0----|
G|-4---0---2----------|
D|-4---0---2----------|
A|-2---2---0----------|
E|-2---3---0----------|


------------------------------------------------------------------------
			     1,000,000 - REM
------------------------------------------------------------------------
Tabbed by: Barnaby Wilde
Email:

Intro/Verse
e|-0--0--0---0-------------------------------------|
B|-0--0--0---0-------------------------------------|
G|-8--8--8---9h------------------------------------|
D|-9--9--9---9-------------------------------------|
A|-9--0--7h--7-------------------------------------|
E|-7--0--0---0-------------------------------------|

Bridge 1: x4
"All among"
e|-0---0---0------------------------------------|
B|--0---0---------------------------------------|
G|---6---6--------------------------------------|
D|----------------------------------------------|
A|----------------------------------------------|
E|----------------------------------------------|

Chorus:
A-C#m-Bm-E
e|--0--0--0--0----------------------------------|
B|--0--0--0--0----------------------------------|
G|--6--6--4--1----------------------------------|
D|--7--6--4--2----------------------------------|
A|--7--4--2--2----------------------------------|
E|--5--0--0--0----------------------------------|

Bridge 2: x8
Pick like in Bridge 1, but slide form below
e|----------------------------------------------|
B|----------------------------------------------|
G|--6--8----------------------------------------|
D|--7--9----------------------------------------|
A|----------------------------------------------|
E|----------------------------------------------|


------------------------------------------------------------------------
			     STUMBLE - REM
------------------------------------------------------------------------
Tabbed by: Barnaby Wilde
Email:

Capo V
Intro
e|-0-0-0-0-0-0-0-0------------------|
B|--0-0-0-0-0-0-0-0-----------------|

Verse
e|-0-0--0--0-0-----2--2-2--2--2-2--2----|
B|-0--0--0----0---3---3--3--3----3--3-3-|
G|-1---1--1----1-2--2-4---4--4----4--4--|
D|-2------------------4-----------------|
A|-2------------------2-----------------|
E|-0------------------2-----------------|

Chorus
e|-----------------------------------------|
B|-000-00000-000-00000-0000000-0-00000000--|
G|-444-22222-444-22222>6666666-7>99999999--|
D|----------------------------------------|
A|----------------------------------------|
E|----------------------------------------|

e|-------------------------5-------5----|
B|-0000-0000-0000-0000--3-3-3-3-3-3-3-3-|
G|-4444-2222-4444-2222-4-4---4-4-4---4--|
D|--------------------------------------|
A|--------------------------------------|
E|--------------------------------------|

Middle Bridge
e|-2---0---2-0------------------|
B|-2---0---2-0------------------|
G|-3---3---3-3------------------|
D|-4---4---4-4------------------|
A|-4---4---4-4------------------|
E|-2---0---2-0------------------|

Bridge 3:
Mostly rhythm, but if you strum or pick a couple of choice times:

e|-0-----------|
B|-3-----------|
G|-4-----------|
D|-0-----------|
A|-------------|
E|-------------|
Then pick intro on penultimate: "It was round about midnight"
comments
We did not receive enough feedback on this tab! Please rate:
print report bad tab
1 2 3 4 5
I want to post or [tab]
guest
You may want to rate the tab now too:
select rating
Please do not post tabs as comments. Select "correction" instead!