Oops, an error
Loading. Please wait.

Dont Go Back To Rockville Bass Tab

25 views 1 this week
no commentswrite comment
1 2 3 4 5
2 more votes to show rating
add to favorites
launch autoscroll
font size
0
reset
guitar tuner
Autoscroll
slow
fast
+/-
esc
set tempo
stop
Help us to improve Ultimate-Guitar.com Take our survey!
×
Author
Difficulty
intermediate
--------------------------------------------------------------------------
                             Artist - Rem 
                            **************
                 Song - (Don't Go Back To) Rockville
                *************************************
                       Album - Reckoning (1984) 
                      **************************
                         Tabbed By - Ayreon77
                        **********************
--------------------------------------------------------------------------
Tuning = Standard             


INTRO
******
G|--------|----------|----------|------------|
D|--------|----------|----------|------------|
A|-7--7---|---7--7---|---7--7---|---7--7---5-|
E|------7-|-7------7-|-7------7-|-7------7---|


------------------
00:07
VERSE 1
********
G|--------|------------|--------|-------------------|------------|--------|------------|
D|--------|------------|--------|----------6-7--7---|---7--7-6---|-7--7---|---7--7-6---|
A|-7--7---|---7--7---5-|-7--7---|---7--7-9--------7-|-7--------9-|------7-|-7--------9-|
E|------7-|-7------7---|------7-|-7-----------------|------------|--------|------------|


G|--------|------------|--------|-------------------|------------|--------|------------|
D|--------|------------|--------|----------6-7--7---|---7--7-6---|-7--7---|---7--7-6---|
A|-7--7---|---7--7---5-|-7--7---|---7--7-9--------7-|-7--------9-|------7-|-7--------9-|
E|------7-|-7------7---|------7-|-7-----------------|------------|--------|------------|

00:32
G|-----------|------------|-------------------------------------------|----------------------|
D|-----------|------------|-------------------------------------------|----------------------|
A|-----------|----------2-|-4--4-4--4-4--2-2--2--0--0-0--0--------0---|-0--0-0-0----0--0-----|
E|-7--7-7--7-|-5--4-4-4---|--------------------------------0-0--0---0-|-----------0------4-2-|


------------------
00:45
VERSE 2
********
G|--------|------------|--------|-------------------|------------|--------|------------|
D|--------|------------|--------|----------6-7--7---|---7--7-6---|-7--7---|---7--7-6---|
A|-7--7---|---7--7---5-|-7--7---|---7--7-9--------7-|-7--------9-|------7-|-7--------9-|
E|------7-|-7------7---|------7-|-7-----------------|------------|--------|------------|


G|--------|------------|--------|-------------------|------------|--------|------------|
D|--------|------------|--------|----------6-7--7---|---7--7-6---|-7--7---|---7--7-6---|
A|-7--7---|---7--7---5-|-7--7---|---7--7-9--------7-|-7--------9-|------7-|-7--------9-|
E|------7-|-7------7---|------7-|-7-----------------|------------|--------|------------|

01:10
G|-----------|------------|-------------------------------------------|----------------------|
D|-----------|------------|-------------------------------------------|----------------------|
A|-----------|----------2-|-4--4-4--4-4--2-2--2--0--0-0--0--------0---|-0--0-0-0----0--0-----|
E|-7--7-7--7-|-5--4-4-4---|--------------------------------0-0--0---0-|-----------0------4-2-|


------------------
01:23
CHORUS
*******
G|----------|----------|--------------------|----------|----------|---------------------|
D|----------|----------|-9--9-9--9-9--------|----------|----------|-9--9------9---------|
A|-7--7-7---|-9--9-9---|------------------6-|-7--7-7---|-9--9-9---|------9--9---------6-|
E|--------7-|--------9-|--------------7-9---|--------7-|--------9-|-------------7-7-9---|


G|----------|------------|---------------------------|--------------------|
D|----------|------------|-9--9------9--9-9-8-7--7-7-|------------9-7-6---|
A|-7--7-7---|-9--9-9-9---|------9--9-----------------|-------7-9--------9-|
E|--------7-|----------9-|---------------------------|-----9--------------|


------------------
01:49
VERSE 3
********
G|--------|------------|--------|-------------------|------------|--------|------------|
D|--------|------------|--------|----------6-7--7---|---7--7-6---|-7--7---|---7--7-6---|
A|-7--7---|---7--7---5-|-7--7---|---7--7-9--------7-|-7--------9-|------7-|-7--------9-|
E|------7-|-7------7---|------7-|-7-----------------|------------|--------|------------|


G|--------|------------|--------|-------------------|------------|--------|------------|
D|--------|------------|--------|----------6-7--7---|---7--7-6---|-7--7---|---7--7-6---|
A|-7--7---|---7--7---5-|-7--7---|---7--7-9--------7-|-7--------9-|------7-|-7--------9-|
E|------7-|-7------7---|------7-|-7-----------------|------------|--------|------------|

02:14
G|-----------|------------|-------------------------------------------|----------------------|
D|-----------|------------|-------------------------------------------|----------------------|
A|-----------|----------2-|-4--4-4--4-4--2-2--2--0--0-0--0--------0---|-0--0-0-0----0--0-----|
E|-7--7-7--7-|-5--4-4-4---|--------------------------------0-0--0---0-|-----------0------4-2-|


------------------
02:27
CHORUS
*******
G|----------|----------|--------------------|----------|----------|---------------------|
D|----------|----------|-9--9-9--9-9--------|----------|----------|-9--9------9---------|
A|-7--7-7---|-9--9-9---|------------------6-|-7--7-7---|-9--9-9---|------9--9---------6-|
E|--------7-|--------9-|--------------7-9---|--------7-|--------9-|-------------7-7-9---|


G|----------|------------|---------------------------|--------------------|
D|----------|------------|-9--9------9--9-9-8-7--7-7-|------------9-7-6---|
A|-7--7-7---|-9--9-9-9---|------9--9-----------------|-------7-9--------9-|
E|--------7-|----------9-|---------------------------|-----9--------------|


------------------
02:53
BRIDGE
*******
G|----------------------------------|--------------|----------------------------------|-------|
D|--------------------6--7---9--9-9-|-7---9--7-6---|--------------------6--7---9--9-9-|-7---9-|
A|-7--7-7--7-7--7-7-9------9--------|---9--------9-|-7--7-7--7-7--7-7-9------9--------|---9---|
E|----------------------------------|--------------|----------------------------------|-------|


G|------------|------------|------------|------------|------------|-------------------------------|
D|------------|------------|------------|------------|------------|-------------------------------|
A|-9--9-9-9-9-|------------|-9--9-9-9-9-|------------|------------|-------------------------------|
E|------------|-9--9-9-9-9-|------------|-9--9-9-9-7-|-5--5-0-0-0-|-0-5--5-0-0-5-7--7-7-7-7-7-7-7-|

03:18
G|------------|------------|-------------------------------------------|----------------------|
D|------------|------------|-------------------------------------------|----------------------|
A|------------|----------2-|-4--4-4--4-4--2-2--2--0--0-0--0--------0---|-0--0-0-0----0--0-----|
E|-7--7-7-7-7-|-5--4-4-4---|--------------------------------0-0--0---0-|-----------0------4-2-|


------------------
03:31
CHORUS
*******
G|----------|----------|--------------------|----------|----------|---------------------|
D|----------|----------|-9--9-9--9-9--------|----------|----------|-9--9------9---------|
A|-7--7-7---|-9--9-9---|------------------6-|-7--7-7---|-9--9-9---|------9--9---------6-|
E|--------7-|--------9-|--------------7-9---|--------7-|--------9-|-------------7-7-9---|


G|----------|------------|---------------------------|--------------------|
D|----------|------------|-9--9------9--9-9-8-7--7-7-|------------9-7-6---|
A|-7--7-7---|-9--9-9-9---|------9--9-----------------|-------7-9--------9-|
E|--------7-|----------9-|---------------------------|-----9--------------|


------------------
03:56
CHORUS
*******
G|----------|----------|--------------------|----------|----------|---------------------|
D|----------|----------|-9--9-9--9-9--------|----------|----------|-9--9------9---------|
A|-7--7-7---|-9--9-9---|------------------6-|-7--7-7---|-9--9-9---|------9--9---------6-|
E|--------7-|--------9-|--------------7-9---|--------7-|--------9-|-------------7-7-9---|


G|----------|------------|---------------------------|----------------------|
D|----------|------------|-9--9------9--9-9-8-7--7-7-|------------9-7-6-----|
A|-7--7-7---|-9--9-9-9---|------9--9-----------------|-------7-9--------9-7-|
E|--------7-|----------9-|---------------------------|-----9----------------|



ENJOY............
Suggest correction
Give kudos to tab author, rate the tab!
1 2 3 4 5
comments
print report bad tab
guest
You may want to rate the tab now too:
select rating
Wanna post a correction for this tab? Suggest correction