Oops, an error
Loading. Please wait.

Dont Go Back To Rockville Tab

9,324 views 24 this week
no commentswrite comment
1 2 3 4 5
excellent!
x 3
add to favorites
launch autoscroll
font size
0
reset
how to read this tab
guitar tuner
Tab Pro tools
  • play this tab
  • loop segment
  • change instrument
  • show fretboard
  • metronome
Autoscroll
slow
fast
+/-
esc
set tempo
stop
Contributor
------------------------------------------------------------------------
                (Don't Go Back To) Rockville - REM
------------------------------------------------------------------------
Tabbed by: Barnaby Wilde
Email:
Intro: E

Verse:
E-A
e|-0-0-0-0-0---0-0-0-0-0---------------------|
B|-0-0-0-0-0---2-3-2-3-2---------------------|
G|-1-2-1-2-1---2-2-2-2-2---------------------|
D|-2-2-2-2-2---2-2-2-2-2---------------------|
A|-2-2-2-2-2---0-0-0-0-0---------------------|
E|-0-0-0-0-0---0-0-0-0-0---------------------|

Verse (Second Guitar) Starts during second verse
e|--7-5-----7-5-----5-7-9-7-5-7-9-7-5---|
B|-5-9-9-7-5-9-9-7-5-5-5-5-5-5-5-5-5----|
G|--------------------------------------|
D|--------------------------------------|
A|--------------------------------------|
E|--------------------------------------|

Bridge to Chorus
B-A-G#-C#m-Bm-A
e|-2---5-4-4---2-0-0-0-0-0-----------------|
B|-4---5-4-5---3-2-3-2-3-2-----------------|
G|-4---6-4-6---4-2-2-2-2-2-----------------|
D|-4---7-6-6---4-2-2-2-2-2-----------------|
A|-2---7-6-4---2-0-0-0-0-0-----------------|
E|-2---5-4-4---2-0-0-0-0-0-----------------|

Bridge to Chorus (Second Guitar)
Pick: 
e|-7---5-4-4---2-0--0---0--------------|
B|-7---5-4-5---3-2-3--2--2-------------|
G|-8---6-4-6---4-2-----0---------------|
D|-9---7-6-6---4-2---------------------|
A|-9---7-6-4---2-0---------------------|
E|-7---5-4-4---2-0---------------------|

Chorus
E-F#m-B x3 -A
e|-0-2-2-2-2-----0-----------------------|
B|-0-2-4-5-4-----2--3-2-0-0-2-3-2-0---0--|
G|-1-2-4-4-4-x3--2-------2---------2-0---|
D|-2-4-4-4-4-----2-----------------------|
A|-2-4-2-2-2-----0-----------------------|
E|-0-2-2-2-2-----0-----------------------|

Middle Bridge
E-A-B-A-B x2 F#m-C#m-F#m-C#m-A-B
e|-0---0-2-0-2-----2-4-2-4---0---2----------|
B|-0---2-4-2-4-----2-5-2-5---2---4----------|
G|-1---2-4-2-4-x2--2-6-2-6---2---4----------|
D|-2---2-4-2-4-----4-6-4-6---2---4----------|
A|-2---0-2-0-2-----4-4-4-4---0---2----------|
E|-0---0-2-0-2-----2-4-2-4---0---2----------|

Ending:
e|-0-0-0----------0-0------|
B|------1>2-0-------0------|
G|-----------0-1h---1------|
D|------------------2------|
A|------------------2------|
E|------------------0------|

Bass Ending:
e|----------------------|
B|----------------------|
G|----------------------|
D|-----2-4h>6-----------|
A|-2-4h-----------------|
E|----------------------|
comments
We did not receive enough feedback on this tab! Please rate:
print report bad tab
1 2 3 4 5
I want to post or [tab]
guest
You may want to rate the tab now too:
select rating
Please do not post tabs as comments. Select "correction" instead!