Oops, an error
Loading. Please wait.

Fall On Me Tab

version 1
version 1

Whole song

Interactive

4,953 views 18 this week
3 commentsread comments
1 2 3 4 5
please rate
add to favorites
launch autoscroll
font size
0
reset
how to read this tab
guitar tuner
Tab Pro tools
  • play this tab
  • loop segment
  • change instrument
  • show fretboard
  • metronome
×
Best way to learn
"Fall On Me"
Autoscroll
slow
fast
+/-
esc
set tempo
stop
Contributor
------------------------------------------------------------------------
                Fall On Me - REM
------------------------------------------------------------------------
Tabbed by: Barnaby Wilde
Email:

Intro
Guitar 1
e|-------------------------------------|
B|------8---10p8------8---10p8---------|
G|-------0------0------0------0--------|
D|-9-10h--10-----9-10h--10-----9-10-10-|
A|-------------------------------------|
E|-------------------------------------|

Guitar 2
e|---------------0----------------|
B|---------------1-3-1-0-1--------|
G|---------------0------0---------|
D|---------------2--------0-2h----|
A|---------------3----------------|
E|---------------0----------------|

Verse
Dm-Am
e|--1--1--0-0--0--0------|
B|---3--3----1--1--------|
G|----2--2----2--2-------|
D|-0-------2-------0-----|
A|-----------------------|
E|-----------------------|

Bridge to Chorus
F-G-C-Dm-F-C-G
e|--1----3-----0---1---1-1---0-0---3----|
B|---1----3-----1---3--1--1--1--1--3----|
G|----2>4--4-0---0---2-2---2-0---0-0----|
D|-3----------2---0----3-----2-----0----|
A|---------------------3-----3-----2----|
E|---------------------1-----2-----3----|

Chorus
Guitar 1 (Acoustic)
e|------0-0-1-1-1-1-3-3----|
B|------1-1-3-3-1-1-3-3----|
G|------0-0-2-2-2-2-4-4----|
D|------2-2-0-0-3-3-5-5----|
A|------3-3-----3-3-5-5----|
E|------0-0-----1-1-3-3----|

Guitar 2
e|-----------------------------------------------------------|
B|-----------------------------------------------------------|
G|-----------------------------------------------------------|
D|-------------3-3-5-5-3-0-------3-3-5-5-3-0-------3-3-5-5---|
A|--0-2-3-3-5-5-----------3-3-5-5-----------3-3-5-5----------|
E|-3---------------------------------------------------------|

End of Chorus
e|-1-1--1--0-0--0--0-------|
B|-1--1--1--1-1--1---------|
G|-2---2--2-2--2--2--------|
D|-3--------3--------------|
A|-3-----------------------|
E|-1-----------------------|

Guitar 2
e|--------------------------|
B|--------------------------|
G|------------0-2p-0--------|
D|-3-3-3-2-2-2--------------|
A|--------------------------|
E|--------------------------|

Middle Bridge
e|-0-0---1--1---0-0---0--0---0-0---1--1-----1-------3---|
B|-1--1--1---1--1--1--0---0--1--1--1---1----3-------3---|
G|-2---2-2----2-2---2-0----0-2---2-2-2------2-------0---|
D|-2-----3-3----2-----2-2----2-----3----3-2-0---2-3-0---|
A|-0-----3------0-----2------0-----3----------------2---|
E|-------1------------0------------1----------------3---|

End of Last Chorus Transition
e|-1--1-1-0-1h-0-0--------|
B|-1---1--------3-3-0-----|
G|-2-2--------------------|
D|-3----------------------|
A|-3----------------------|
E|-1----------------------|
comments
We did not receive enough feedback on this tab! Please rate:
print report bad tab
1 2 3 4 5
3 comments total.
0 reply
Jim3NYC wrote on January 18 2014, 11:58 am

The Intro/Guitar 1 tab is incorrect. Below is based on watching video of Peter Buck:


Intro
Guitar 1
e|-------------------------------------------------
B|------8-------10p8--------8------10p8------------
G|--------0----------0--------0---------0------(9)-
D|-9h10-----10---------9h10-----10--------9h10-----

0 reply
Jim3NYC wrote on January 18 2014, 11:59 am

The Intro/Guitar 1 tab is incorrect. Below is based on watching video of Peter Buck:


Intro
Guitar 1
e|-------------------------------------------------
B|------8-------10p8--------8------10p8------------
G|--------0----------0--------0---------0------(9)-
D|-9h10-----10---------9h10-----10--------9h10-----

0 reply
Barnaby Wilde wrote on January 20 2015, 06:05 pm

Nice catch! I've amended above ... I was so intent on being close to the Dm that I didn't pay closer attention to the live performance ...
Thanks!

I want to post or [tab]
guest
You may want to rate the tab now too:
select rating
Please do not post tabs as comments. Select "correction" instead!