Oops, an error
Loading. Please wait.

Find The River Tab

version 2
version 2

Whole song

Interactive

2,318 views 1 this week
1 commentread comment
1 2 3 4 5
excellent!
x 6
add to favorites
launch autoscroll
font size
0
reset
how to read this tab
guitar tuner
Tab Pro tools
  • play this tab
  • loop segment
  • change instrument
  • show fretboard
  • metronome
×
Best way to learn
"Find The River"
Autoscroll
slow
fast
+/-
esc
set tempo
stop
Difficulty
novice
              -------2---------0----|
              ----3--3------3--3----|
Intro Riff:   --2----2----0----0----|    x  2
              0------0--2------2----|
              ----------------------|
              ----------------------|

Melodica Riff (Transposed for Guitar - played at same time as chords below)

              D         Dm        Dsus2       Dsus4/G
              --------------------------8-----|
              9-7---7------10-8----8-10----10-|
              ----9---7---------10------------|
              ----------7---------------------|
              --------------------------------|
              --------------------------------|

              D         Dm        Dsus2
              ----------------------------|
              9-7---7------10-8----8-10---|
              ----9---7---------10--------|
              ----------7-----------------|
              ----------------------------|
              ----------------------------|


D                Dm             Dsus2           Dsus4/G
Hey now little speedy head, the read on the speedmeter says
D                      Dm         Dsus2
you have to go the task in the city
      D                    Dm
Where people drown and people serve,
    Dsus2           Dsus4/G           D       
Dm             Dsus2
Don't be shy, your just deserve is only just light years to go.

G                        A          D                Em
Me, my thoughts are flower strewn, ocean storm, bayberry moon.
G                  A           D
I have got to leave to find my way
G                     A               D              Em
Watch the road and memorize this life that pass before my eyes,
 G              A          D
   nothing is going my way


              D         Dm        Dsus2       Dsus4/G
              --------------------------8-----|
              9-7---7------10-8----8-10----10-|
              ----9---7---------10------------|
              ----------7---------------------|
              --------------------------------|
              --------------------------------|

              D         Dm        Dsus2
              ----------------------------|
              9-7---7------10-8----8-10---|
              ----9---7---------10--------|
              ----------7-----------------|
              ----------------------------|
              ----------------------------|




   D                Dm               Dsus2            Dsus4/G
The ocean is the rivers goal, a need to leave the water knows.
      D                   Dm            Dsus2
We're closer now than light years to go.

G               A              D             Em
I have got to find the river, bergamot and vetiver
G                A                  D
 Run through my head and fall away.
G                     A              D                  Em
Leave the road and memorize this life that pass before my eyes,
G              A         D
  nothing is going my way.


REPEAT INTRO RIFF

[Melodica Riff over next verse]

        D                  Dm          Dsus2              Dsus4/G
There's no one left to take the lead, but I tell you and you can see
          D             Dm             Dsus2
We're closer now and light years to go
 D                Dm                  Dsus2           Dsus4/G
Pick up here and chase the ride.  The river empties to the tide;
D              Dm       Dsus2
Fall into the ocean.

    G              A              D               Em
The river to the ocean goes, a fortune for the undertow.
G                 A         D
None of this is going my way.
G                    A               D              Em
There is nothing left to throw of ginger, lemon, indigo,
G             A                 D
 Coriander stem and rose of hay.
   G                    A                D              Em
Strength and courage overrides these privileged and weary eyes of
G            A           D
River poet search naivete.
G                   A                 D                Em
Pick up here and chase the ride, the river empties to the tide.
G                A              D
All of this is coming your way.


REPEAT INTRO RIFF
comments
print report bad tab
1 comment total.
0 reply
Tezzi wrote on April 4 2015, 08:55 am

The first note of the melodica riff is wrong. It's actually:

--------------------------8-----|
-> 8-7---7------10-8----8-10----10-|
----9---7---------10------------|
----------7---------------------|
--------------------------------|
--------------------------------|

I want to post or [tab]
guest
You may want to rate the tab now too:
select rating
Please do not post tabs as comments. Select "correction" instead!