Oops, an error
Loading. Please wait.

Fireplace Tab

271 views 1 this week
no commentswrite comment
1 2 3 4 5
please rate
add to favorites
launch autoscroll
font size
0
reset
how to read this tab
guitar tuner
Tab Pro tools
  • play this tab
  • loop segment
  • change instrument
  • show fretboard
  • metronome
×
Best way to learn
"Fireplace"
Autoscroll
slow
fast
+/-
esc
set tempo
stop
Contributor
------------------------------------------------------------------------
                FIREPLACE - REM
------------------------------------------------------------------------
Tabbed by: Barnaby Wilde
Email:

Intro:
e|-2-----2-------|
B|--0-0---0-0----|
G|---3-3---3-3---|
D|------4-----4--|
A|---------------|
E|---------------|

Verse 
e|---------0---0---|
B|---------0---0---|
G|-3---6---7---5---|
D|-4---7---7---5---|
A|-4---7---5---3---|
E|-2---5---0---0---|

Chorus
e|-1--1--1>3--3-----3---1---|
B|-1---1-1>3---3----5---3---|
G|-2-2---2>4-4------5---3---|
D|-3-----3>5--------5---3---|
A|-3-----3>5---x2---3---1---|
E|-1-----1>3--------3---1---|

e|-1--1--1>3--3----3---|
B|-1---1-1>3---3---3---|
G|-2-2---2>4-4-----4---|
D|-3-----3>5-------5---|
A|-3-----3>5---x2--5---|
E|-1-----1>3-------3---|

Break
e|-4-2-2---------|
B|-2-2-0-----0---|
G|-----0-2-4-4---|
D|------------x3-|
A|---------------|
E|---------------|

Break (Guitar 1)
e|------------------|
B|------------------|
G|-3---6---11----9--|
D|-4---7---12---10--|
A|-4---7---12---10--|
E|-2---5---10----8--|

Break (Guitar 2)
e|------------------|
B|--7-5------7-5----|
G|-----6--------5---|
D|------------------|
A|------------------|
E|------------------|

End
e|-4-2-2---------|
B|-2-2-0-----0---|
G|-----0-2-4-4---|
D|---------------|
A|---------------|
E|---------------|

comments
We did not receive enough feedback on this tab! Please rate:
print report bad tab
1 2 3 4 5
I want to post or [tab]
guest
You may want to rate the tab now too:
select rating
Please do not post tabs as comments. Select "correction" instead!