Oops, an error
Loading. Please wait.

Good Advices Tab

version 2
version 2

Whole song

877 views 1 this week
no commentswrite comment
1 2 3 4 5
please rate
add to favorites
launch autoscroll
font size
0
reset
how to read this tab
guitar tuner
Tab Pro tools
  • play this tab
  • loop segment
  • change instrument
  • show fretboard
  • metronome
×
Best way to learn
"Good Advices"
Autoscroll
slow
fast
+/-
esc
set tempo
stop
Contributor
------------------------------------------------------------------------
                GOOD ADVICES - REM
------------------------------------------------------------------------
Tabbed by: Barnaby Wilde
Email:

Verse
e|-0---0---0----0--0--0-2--0--2-0--|
B|-0---0---0-----5--5----3--3------|
G|-9---7---6---6--6--6----4--4-----|
D|-9---7---7-----------------------|
A|-7---5---0-----------------------|
E|-0---0---0-----------------------|

Chorus
e|--0----0----0----0----5-5--5--5-0-0--0--0-0---0---0---0-|
B|---0----0-------------5--5--5---0--0--0---0---0---0---0-|
G|-2--2>4--4>6-6-7h-7-0-6---6--6--6---6--6--9---2---9---2-|
D|----------------------7---------7---------9---2---9---2-|
A|----------------------7---------7---------7---0---7---0-|
E|----------------------5---------0---------0---0---0---0-|



e|--0----0----0----0----5-5--5--5-0-0--0--0-5--|
B|---0----0-------------5--5--5---0--0--0---5--|
G|-2--2>4--4>6-6-7h-7-0-6---6--6--6---6--6--6--|
D|----------------------7---------7---------7--|
A|----------------------7---------7---------7--|
E|----------------------5---------0---------5--|

Bridge
"At the end of the day ... "
e|-0----|
B|-0----|
G|-4----|
D|-5----|
A|-5----|
E|-3----|

2nd Guitar
e|-0------------------------------------------|
B|-0-7-9-10-9-7----7-9-10-9-7---7-9-10-9-7----|
G|-9-----------9-7-----------9-6----------9---|
D|-9------------------------------------------|
A|-7------------------------------------------|
E|-0------------------------------------------|
comments
We did not receive enough feedback on this tab! Please rate:
print report bad tab
1 2 3 4 5
I want to post or [tab]
guest
You may want to rate the tab now too:
select rating
Please do not post tabs as comments. Select "correction" instead!