Oops, an error
Loading. Please wait.

Green Tab

version 2
version 2

Album

2,029 views 1 this week
no commentswrite comment
1 2 3 4 5
please rate
add to favorites
launch autoscroll
font size
0
reset
how to read this tab
guitar tuner
Tab Pro tools
  • play this tab
  • loop segment
  • change instrument
  • show fretboard
  • metronome
×
Best way to learn
"Green"
Autoscroll
slow
fast
+/-
esc
set tempo
stop
Contributor
------------------------------------------------------------------------
		POP SONG 89 - REM
------------------------------------------------------------------------
Tabbed by: Barnaby Wilde
Email:

Verse
e|-0---2---0---2-2-0---|
B|-2---3---2---3-2-0---|
G|-2---2---2---2-2-0---|
D|-2---0---2---0-0-0---|
A|-0-------0-----------|
E|-0-------0-----------|

Riff
e|-8--------------------------|
B|--5-------------------------|
G|---7-7-5-5-7-7>9-7-7-9h-0---|
D|-----------------------9----|
A|----------------------------|
E|----------------------------|

Chorus
e|-0-0-0-3-3-3-2-2-0-0-0-0---|
B|-0--0--3--3--3--3--0--0----|
G|-1-----0-----2-----4-------|
D|-2-----0-----0-----4-------|
A|-2-----2-----------2-------|
E|-0-----3-----------0-------|

Break
e|-0---0---0---0---0-------|
B|-0---0---0---0---0-7b!---|
G|-4---9---4---9---7-------|
D|-4---9---4---9---7-------|
A|-2---7---2---7---5-------|
E|-0---0---0---0---0-------|

------------------------------------------------------------------------
		GET UP - REM
------------------------------------------------------------------------
Tabbed by: Barnaby Wilde
Email:

Intro/ Chorus
e|-0---0----0---0---0---|
B|-0---0----0---0---0---|
G|-9---8----9---4---6---|
D|-9---9---10---5---7---|
A|-7---9---10---5---7---|
E|-0---7----8---3---5---|

e|-0---0----0---0---6---|
B|-0---0----0---0---6---|
G|-9---8----9---4---7---|
D|-9---9---10---5---8---|
A|-7---9---10---5---8---|
E|-0---7----8---3---6---|

Slide on Second Half of Chorus
e|---------------------|
B|---------------------|
G|-7>9-----3>5---------|
D|-7>9-7>9-3>5-3>5>8---|
A|-----7>9-----3>5>8---|
E|---------------------|

Verse
e|-xx-55-xx-55-xx-55-xx-33-55-xx-55-xx-55-33---|
B|-xx-55-xx-55-xx-55-xx-33-77-xx-77-xx-77-33---|
G|-xx-66-xx-66-xx-66-xx-44-77-xx-77-xx-77-44---|
D|-xx-77-xx-77-xx-77-xx-55-77-xx-77-xx-77-55---|
A|-xx-77-xx-77-xx-77-xx-55-55----55----55-55---|
E|-xx-55-xx-55-xx-55-xx-33-55----55----55-33---|

Middle Bridge
(All Feedback)
e|---------|
B|---7--7--|
G|---7--7--|
D|-7--7----|
A|-7--7----|
E|---------|

End
Hold Bb
A

------------------------------------------------------------------------
		YOU ARE THE EVERYTHING - REM
------------------------------------------------------------------------
Tabbed by: Barnaby Wilde
Email:

Intro/ Middle Bridge (Am)
e|-0---0-0-0-0---|
A|-0---0-0-0-0---|
D|-2---0-2-0-2---|
G|-5---0-5-0-5---|

Verse (G-D)
e|-3---5-3-2---|
A|-2---2-2-0---|
D|-0---0-0-0---|
G|-0---0-0-2---|

e|-0---3---|
A|-3---2---|
D|-2---0---|
G|-0---0---|

Bridge to Chorus
e|-0-1-0-0-0-|
A|-0-0-0-5-0-|
D|-----------|
G|-----------|

Chorus (D)
e|-5-5-5-3-5--0-1-0----|
A|-0-0-0-0-0-5-----5-0-|
D|---------------------|
G|---------------------|

End Am

------------------------------------------------------------------------
		STAND - REM
------------------------------------------------------------------------
Tabbed by: Barnaby Wilde
Email:

Intro
e|------------|
B|-0----------|
G|-4b---2-0---|
D|------------|
A|------------|
E|------------|

Chorus
e|--------------0-0--|
B|---0----------0-0--|
G|--1-2-2-6-4---9-8--|
D|-2------6-4---9-9--|
A|----------2---0-0--|
E|----------0---0-0--|

e|--------------|
B|---0----------|
G|--1-2-2-6-4---|
D|-2------6-4---|
A|----------2---|
E|----------0---|

Verse
e|------------------------------|
B|---0-----0--------------------|
G|----9<----7<-6-6-5-4-4-4-4-4--|
D|--9-----7----6-6-5-4-4-4-4-4--|
A|-7-----5-----4-4-3-2-0-2-2-0--|
E|------------------------------|

e|-------------3-5-7--|
B|---0-----0---3-5-7--|
G|----9<----7<-4-6-8--|
D|--9-----7----5-7-9--|
A|-7-----5-----5-7-9--|
E|-------------3-5-7--|

Lead
e|--------------------------------------------------------------|
B|-3-5h-5-3-3-5h-3-3-5h-5-3-5-3-5-3-8-8-0-5-5-0-3>5-5-3-3-0-3-5-|
G|-------4------4-----------------------------------------------|
D|--------------------------------------------------------------|
A|--------------------------------------------------------------|
E|--------------------------------------------------------------|

e|------------------------------------------------------------2>-|
B|-8-7-8>10-10-10-10-10-8-7-5-5-7h---3p-0-5-3p-0-5-5-3---3-5-5---|
G|--------------------------------9-4------4------4---4-4--------|
D|---------------------------------------------------------------|
A|---------------------------------------------------------------|
E|---------------------------------------------------------------|

End (Key Changes)
e|-2---2---6-4---|
B|-2---2---6-4---|
G|-3---4---8-6---|
D|-4---4---8-6---|
A|-4---2---6-4---|
E|-2---2---6-4---|

e|-4---4----8-6---|
B|-4---4----8-6---|
G|-5---6---10-8---|
D|-6---6---10-8---|
A|-6---4----8-6---|
E|-4---4----8-6---|

End on Ab

------------------------------------------------------------------------
		WORLD LEADER PRETEND - REM
------------------------------------------------------------------------
Tabbed by: Barnaby Wilde
Email:

Intro/Chorus
e|-0--0--0-----------2--2-2-2-0---|
B|-0---0--0----------3---3---3----|
G|-0-----------------4-----4------|
D|-2-2--2--0-2-4-2-0-4-4----------|
A|-2-----------------2------------|
E|-0-----------------2------------|

e|-0--0--0-----------2--2-0--0--0--3--3---0--0---|
B|-0---0--0----------3---3-3--3--3-3---3--2---2--|
G|-0-----------------4------4--4---0-0--0-2-2--2-|
D|-2-2--2--0-2-4-2-0-4-4-----------0------0------|
A|-2-----------------2-------------2------0------|
E|-0-----------------2-------------3------0------|

Verse
e|-2--2---3--3---0--0---2--2-3-2---|
B|-3---3--3---3--1---1--3------3---|
G|-2------0----0-0----0-2------2---|
D|-0-0--0-0-0----2-2----0-0----0---|
A|--------2------3-----------------|
E|--------3------0-----------------|

Middle Bridge
Am-C (x3)
G-A (ala Chorus)

Steel Slide Guitar
e|-7>9>11>12>14-------12------|
c|-7>9>11>12>14-16<12<12------|

e|-7>9>11>12-17<15-|
c|-7>9>11>12-------|

e|-9---12--12--12<9>11>13--|
c|-9>12--12--12--<9>11>13--|

------------------------------------------------------------------------
		THE WRONG CHILD - REM
------------------------------------------------------------------------
Tabbed by: Barnaby Wilde
Email:

Verse (12 String)
e|-0---0----|
B|-0---0----|
G|-0---2----|
D|-2---4----|
A|-0---0----|
E|-0---0----|

Verse (Mandolin)
e|-777553000000-00---|
A|-000000045402-20---|
D|-------------------|
G|-------------------|

Chorus (Guitar 1)
e|-3---2---0---0---0---0---0-----------|
B|-0---3---2---0---3---3---3-----------|
G|-0---2---3---2---4---4---0-2-4h-2-0--|
D|-0---0---0---2---5---4---2---------0-|
A|-x-----------0---0---0---0-----------|
E|-3-----------0---0---0---0-----------|

Chorus (Guitar 2)
e|-3-3-2-2-0-0-----3---2----2-2---|
B|------------3-0---3---3--3--3---|
G|----------------4---4---0---0---|
D|---------------5---4---2----2---|
A|--------------------------------|
E|--------------------------------|

Chorus (Mandolin)
e|---0---0---0---0--0-0-0-0---|
A|--0-0-0-0-0-0-0-0-0-0-0-0---|
D|-5---4---2---0----5-4-2-2---|
G|------------------0-0-0-0---|

Middle Bridge
e|----3-2---3-2---3---2----2-2---|
B|---3-----3---0---3---3--3--3---|
G|--2-----2------4---4---0---0---|
D|-0-----0------5---4---2----2---|
A|-------------------------------|
E|-------------------------------|

Middle Bridge (Mandolin)
e|----3-2---3-2--0---0---0--|
A|---0-----0----0-0-0-0-0-0-|
D|--0-----0----5---4---2----|
G|-2-----2------------------|

Last Chord
e|-5-|
B|-5-|
G|-7-|
D|-7-|
A|-0-|
E|-0-|

e|-5-|
A|-2-|
D|-2-|
G|-0-|

------------------------------------------------------------------------
		ORANGE CRUSH - REM
------------------------------------------------------------------------
Tabbed by: Barnaby Wilde
Email:

Intro
e|-0--|
B|-0--|
G|-9--|
D|-9--|
A|-0--|
E|-0--|

Verse
e|-0-0-0-0-0-------0--0---|
B|-0--0---0-0-0-------0---|
G|-9---------7----7-0-9---|
D|-9-----------5-7----9---|
A|-0------------------0---|
E|-0------------------0---|

Chorus
e|-0---0----2---0--2---0--2---0---|
B|-0-0--0-0-4-4--4-2-2--2-4-4--4--|
G|-1--1--1--4--4---2------4--4----|
D|-2--------4------4--4---4-------|
A|-2--------2------4------2-------|
E|-0--------2------2------2-------|

Middle Bridge
e|---12-----------14-10--12-----------14-10---|
B|-12-------12--10-----12-------12--10--------|
G|------------12------------------12----------|
D|--------12------------------12--------------|
A|--------------------------------------------|
E|--------------------------------------------|

-----------------------------------------------------------------------
		Turn You Inside-Out - REM
-----------------------------------------------------------------------
Tabbed by: Barnaby Wilde
Email:

Intro:
e|-2--|
B|-0--|
G|-4--|
D|-4--|
A|----|
E|----|

Verse/Chorus:
Walk the B string down to mirror bass 
e|-2-2-2-2-2-2-2-2-2-2-0---0--|
B|-0-0-0-3p0-0-0-0-3p0-0---3--|
G|-4-4-4-4-4-4-4-4-4-4-2---2--|
D|-4-4-4-4-4-4-4-4-4-4-2---2--|
A|----------------------------|
E|----------------------------|

Bridge:
e|-0---0-|
B|-0---3-|
G|-1---2-|
D|-2---0-|
A|-2---0-|
E|-0---0-|

Middle Bridge:
e|-2--|
B|-2--|
G|-3--|
D|-4--|
A|-4--|
E|-2--|

e|-14-|
B|-14-|
G|-15-|
D|----|
A|----|
E|----|


Outro:
e|-0-0-0-0-0-0-0-0-0-0-0---0-0--0------0--|
B|-0-0-0-0-0-3p0-0-0-0-5---5-7h----3p0----|
G|-4-4-4-4-4-4-4-4-4-4-7---7-7-7-4----4-2-|
D|-4-4-4-4-4-4-4-4-4-4-0---0-0---4------2-|
A|----------------------------------------|
E|----------------------------------------|

Final Walk Down:
e|-0-0-0-0-0---|
B|-0-5-0-0-0---|
G|-4-0-7-6-0---|
D|-4-0-0-0-0---|
A|-------------|
E|-------------|

-----------------------------------------------------------------------
		HAIRSHIRT - REM
-----------------------------------------------------------------------
Tabbed by: Barnaby Wilde
Email:

Verse:
e|-7---7---7---7---5---5>7-|
A|-5---4---3---2---3---3>5-|
D|-------------------------|
G|-------------------------|

Chorus:
e|-0-0----3---0---0-0---|
A|-5-7h---0---5---5-7h--|
D|----------------------|
G|----------------------|

Bridge to Verse:
e|-3---5>7--|
A|-0---3>5--|
D|----------|
G|----------|


-----------------------------------------------------------------------
		I REMEMBER CALIFORNIA - REM
-----------------------------------------------------------------------
Tabbed by: Barnaby Wilde
Email:

Intro/ Chorus
e|---------------------|
B|--1-0-1-0----3-1-0---|
G|---------------------|
D|---------------------|
A|---------2-3---------|
E|-0----------1--------|

Verse:
e|----------0-0--|
B|-----------0---|
G|---------------|
D|-(2)---(2)-----|
A|-(2)---(3)-----|
E|-(0)---(0)-----|

End:
e|----2----0--7--0--0---|
B|-----0----0--0--0--0--|
G|-2>4--4>9--9--9--9--0-|
D|----------------------|
A|----------------------|
E|----------------------|

-----------------------------------------------------------------------
		UNTITLED - REM
-----------------------------------------------------------------------
Tabbed by: Barnaby Wilde
Email:

Verse:
e|-0---0-0-0---0-0-0-0---|
B|-8---5-3-1---3-1-3>8---|
G|-0---0-0-0---0-0-0-0---|
D|-----------------------|
A|-----------------------|
E|-----------------------|

e|-0---0-0-0---0-0-0-0---0---0---0-0-0-0-0----|
B|-8---5-3-1---3-1-3>5---3---5---3-3-5-3-5>8--|
G|-0---0-0-0---0-0-0-0---0---0---0-0-0-0-0----|
D|--------------------------------------------|
A|--------------------------------------------|
E|--------------------------------------------|

Chorus:
e|-1---0-1---3---|
B|-1---1-1---3---|
G|-2---0-2---4---|
D|-3---2-3---5---|
A|-3---3-3---5---|
E|-1---0-1---3---|
comments
We did not receive enough feedback on this tab! Please rate:
print report bad tab
1 2 3 4 5
I want to post or [tab]
guest
You may want to rate the tab now too:
select rating
Please do not post tabs as comments. Select "correction" instead!