Oops, an error
Loading. Please wait.

Green Grow The Rushes Tab

version 2
version 2

Whole song

Interactive

1,865 views 3 this week
no commentswrite comment
1 2 3 4 5
please rate
add to favorites
launch autoscroll
font size
0
reset
how to read this tab
guitar tuner
Tab Pro tools
  • play this tab
  • loop segment
  • change instrument
  • show fretboard
  • metronome
Autoscroll
slow
fast
+/-
esc
set tempo
stop
Contributor
------------------------------------------------------------------------
                GREEN GROW THE RUSHES - REM
------------------------------------------------------------------------
Tabbed by: Barnaby Wilde
Email:

Intro/Chorus
e|--0------0--0--0------2-2--2--2-222222-------|
B|---2-3>5--3--3----x3--3--3--3---333333-------|
G|-2------4--4--4-------4---4--4--444444-------|
D|-0--------------------4---------444444-------|
A|----------------------2---------222222-------|
E|----------------------2---------222222-------|


Verse:
e|-2-2-2-3-2-3-3-3-------2-2-2-2-2-0-0------0---|
B|-3-3-3-3-3-3-3-3-------3-3-3-3-3-0--0------0--|
G|-2-2-2-2-2-0-0-0-------4-4-4-4-4-1---1-1>2----|
D|-0-0-0-0-0-0-0-0-----0-4-4-4-4-4-2------------|
A|-----------2-2-2-0-2h--2-2-2-0-2-2------------|
E|-----------3-3-3-------2-2-2-0-2-0------------|

Bridge:
e|----------------------------------------------------------------------|
B|----------------------------------------------------------------------|
G|-14-14-14-12-11-12-12-12-12-11-9-11-11-11-11-9-7-7-7-7-9h-7-4>7-7-7-0-|
D|--0--0--0--0--0--0--0--0--0--0-0--0--0--0--0-0-0-0-0-0-0--0-0-0-0-0-0-|
A|----------------------------------------------------------------------|
E|----------------------------------------------------------------------|

Outro:
e|--0--0--0--0--0--0--0--0--0--0--0--0--0--0------------------|
B|-10-10-10-10-10-10-10-10-10-10-10-10-10-10------------------|
G|-11-11-11-12-11-12-12-12-12-12-12-12-12-12------------------|
D|--0--0--0--0--0--0--0--0--0--0--0--0--0--0------------------|
A|------------------------------------------------------------|
E|------------------------------------------------------------|

e|--0--0--0--0--0--------------------|
B|-10-10-10-10-10--------------------|
G|-11-11-11-12-11-11-12h-11--11-11---|
D|--0--0--0--0--0----------12-----12-|
A|-----------------------------------|
E|-----------------------------------|

e|--0--0--0--0--0--0--0--0--0--0-0---------0--------------------|
B|-10-10-10-10-10-10-10-10-10-10-8-8--7----5-5-5-5-5-7h-5-5-----|
G|-11-11-11-12-11-12-12-12-12-11-9--9--9---6-------------7------|
D|--0--0--0--0--0--0--0--0--0--0-0---9--9--7--------------------|
A|--------------------------------------------------------------|
E|--------------------------------------------------------------|

End:
e|----------0-0-0-0-0-----2-2-2-3-2--|
B|--8--7----5-5-5-5-5-----3-3-3-3-3--|
G|---9--9---6-6-6-6-6-x3--2-2-2-0-2--|
D|----9--9--7-7-7-7-7-----0-0-0-0-0--|
A|------------------------------2----|
E|------------------------------3----|
comments
We did not receive enough feedback on this tab! Please rate:
print report bad tab
1 2 3 4 5
I want to post or [tab]
guest
You may want to rate the tab now too:
select rating
Please do not post tabs as comments. Select "correction" instead!