Oops, an error
Loading. Please wait.

Harborcoat Tab

version 3
version 3

Whole song

Interactive

1,408 views 1 this week
2 commentsread comments
1 2 3 4 5
please rate
add to favorites
launch autoscroll
font size
0
reset
how to read this tab
guitar tuner
Tab Pro tools
  • play this tab
  • loop segment
  • change instrument
  • show fretboard
  • metronome
×
Best way to learn
"Harborcoat"
Autoscroll
slow
fast
+/-
esc
set tempo
stop
Contributor
------------------------------------------------------------------------
                             Harborcoat - REM
------------------------------------------------------------------------
Tabbed by: Barnaby Wilde
Email:
Tune down 1/2 step.

Intro/ Chorus:
E-B-A
e|--0--0-2-0-0----------------|
B|--0--0-0-2-0----------------|
G|--0--1-1-2-2----------------|
D|--0--2-1-2-2----------------|
A|--0--2-0-0-0----------------|
E|--0--0-0-0-0----------------|

Verse:
Pick last sliding chords.
e|--4-4------5-5-5---5-7-|
B|--5-5------5-5-5---5-7-|
G|--6-6-2-1--6-6-6---6-8-|
D|--6-6----2-7-7-7---7-9-|
A|--0-0------------------|
E|--0-0------------------|

Bridge to Chorus:
e|-5-5>7-7-7------5-5-5---5-5---5-5----|
B|-7-7>9-9-9------7----5-5---5-5---5-5-|
G|-6-6>8-8-8---x3-6--------------------|
D|-7-7>9-9-9------7--------------------|
A|------------------------------------|
E|------------------------------------|

Bridge 2:
Scratch barres like a madman, pick last chord.
e|-5--7-7--2-------------|
B|-5--7-9--0-------------|
G|-5--7-7--4-------------|
D|-5--7-7--4-------------|
A|-5--7-7----------------|
E|-5--7-7----------------|

Second Guitar on final Chorus:

e|---0--2-------0-----0-----0----|
B|--0--0--2-0-2h--0-2h--0-2h-----|
G|-4--4--------------------------|
D|-------------------------------|
A|-------------------------------|
E|-------------------------------|

End on:
e|-2-------------|
B|-0-------------|
G|-4-------------|
D|-4-------------|
A|---------------|
E|---------------|
comments
We did not receive enough feedback on this tab! Please rate:
print report bad tab
1 2 3 4 5
2 comments total.
0 reply
whitherbottom wrote on June 10 2013, 04:31 pm

The second chord of the intro/chorus is wrong in all of these versions. It's still a G#m - it just sounds better than a barred G#m.

Here's the real one. look at the youtube live performances, Buck's hands never leave the first three frets.

E|-2-
B|-0-
G|-1-
D|-1-
A|-x-
E|-x-

0 reply
Barnaby Wilde wrote on January 20 2015, 06:51 pm

Nice catch ... I was so obsessed with the chord formation in Turn You Inside out that I put it here too ... I've changed a couple of other things too ...

I want to post or [tab]
guest
You may want to rate the tab now too:
select rating
Please do not post tabs as comments. Select "correction" instead!