Oops, an error
Loading. Please wait.

I Believe Tab

1,669 views 21 this week
no commentswrite comment
1 2 3 4 5
please rate
add to favorites
launch autoscroll
font size
0
reset
how to read this tab
guitar tuner
Tab Pro tools
  • play this tab
  • loop segment
  • change instrument
  • show fretboard
  • metronome
Autoscroll
slow
fast
+/-
esc
set tempo
stop
Contributor
------------------------------------------------------------------------
                I Believe - REM
------------------------------------------------------------------------
Tabbed by: Barnaby Wilde
Email:

Intro Banjo Chords
Basic Picking Pattern
d|---0----5----------0----5-|
B|---3----5----------3----5-|
G|-2-4h---0----0-2---4h---0-|
D|---0----2----------0----2-|
G|---0----0----------0----0-|

Verse:
Guitar 1
e|-1-1--1--1-1--1--1-1--1--1-1-------|
B|-1--1--1----1--1----1--1----1------|
G|-2---2--2----2--2----2--2----2-----|
D|-3---------------------------------|
A|-3---------------------------------|
E|-1---------------------------------|
Guitar 2
e|-----------------------------------|
B|-----------------------------------|
G|-------0-2-3-2-0--------0-2-3-2-0--|
D|------3---------3------3---------3-|
A|-----3----------------3------------|
E|-0-1h-------------0-1h-------------|

Guitar 1
e|-1-1--1--1-1--1--1-1--1--1-1---6-6--6--6-6--6---3-3--3--3-3--3---|
B|-1--1--1----1--1----1--1----1--6--6--6----6--6--3--3--3----3--3--|
G|-2---2--2----2--2----2--2----2-7---7--7----7--7-3---3--3----3--3-|
D|-3-----------------------------8----------------4----------------|
A|-3-----------------------------8----------------4----------------|
E|-1-----------------------------6----------------3----------------|
Guitar 2
e|----------------------1-1-1-1--6----------------3-|
B|----------------------1-1-1-1--6----------------3-|
G|-------0-2-3-2-0--x-x-2-2-2-2--7----------------3-|
D|------3---------3-x-x-3-3-3-3--8----------------4-|
A|-----3------------x-x-3-3-3-3--8----------------4-|
E|-0-1h-------------x-x-1-1-1-1--6----------------3-|

Bridge to Chorus
"There's a key"
e|--8---5---6----8-----|
B|--9---5---6----9-----|
G|-10---5---7---10-----|
D|-10---7---8---10-----|
A|--8---7---8----8-----|
E|--8---7---6----8-----|

Chorus
e|-1-1-1-1-0-0------3--3--3--3---6--6--6--6--|
B|-1-1-1-1-0-1------3---3--3--3--6---6--6--6-|
G|-2-3-3-2-0-0------3----3--3--3-7----7--7--7|
D|-3-3-3-3-0-2---x3-4-4----------8-8---------|
A|-3-1-1-1-0-3------4------------8-----------|
E|-1-1-1-1-0-0------3------------6-----------|

Middle Bridge
e|-5--5--5--5---6--6--6--6--------8---8---8---8----|
B|-6---6--6--6--6---6--6--6-------9----9---9---9---|
G|-7----7--7--7-7----7--7--7-----10-----10--10--10-|
D|-7-7----------8-8----------x3--10-10-------------|
A|-5------------8----------------10----------------|
E|-5------------6-----------------8----------------|

End on:
e|-5----|
B|-6----|
G|-7----|
D|-7----|
A|-5----|
E|-5----|
comments
We did not receive enough feedback on this tab! Please rate:
print report bad tab
1 2 3 4 5
I want to post or [tab]
guest
You may want to rate the tab now too:
select rating
Please do not post tabs as comments. Select "correction" instead!