Oops, an error
Loading. Please wait.
We have an official Losing My Religion tab made by UG professional guitarists. Check out the tab »
×

Losing My Religion Chords

version 2
version 2

Whole song

Video

by R.E.M.
154,007 views 6,009 this week
8 commentsread comments
1 2 3 4 5
x 140
add to favorites
×
Save as Personal and add changes to this tab that will be seen only by you. Learn more ›
×
You can save this tab as Personal to edit and correct it or add notes. All changes will be seen only by you. Learn more »
save as personal
new!
launch autoscroll
font size
0
reset
transpose
0
reset
simplify chords
display chords
guitar tuner
backing track
0:00
0:00
Autoscroll
slow
fast
+/-
esc
set tempo
stop
Author
Difficulty
Key
novice
Am
Strumming
There is no strumming pattern for this song yet. and get +5 IQ
Here's a good song thats fun to play. Standard tuning and chords in parentheses
means just one strum. Ex: (G). 

PLEASE READ: For the beginning of the third verse, you can either play the second part of the 
instrumental OR the chords provided. 
If you choose to play the chords, finish the 
instrumental and then start the third verse. Enjoy!


[Intro]

                        F            Dm                      Am
e|------0---------------1--1--1--1----1--|-----0------------0--0--0--0--0--|
B|--3--------3----------1--1--1--1----3--|--3------3--------1--1--1--1--1--|
G|----------------2-----2--2--2--2----2--|-------------2----2--2--2--2--2--| X2
D|----------------------3--3--3--3----0--|------------------2--2--2--2--2--|
A|----------------------0--0--0--0----0--|------------------0--0--0--0--0--|
E|----------------------0--0--0--0----0--|------------------0--0--0--0--0--|     


[Verse 1]

(G)   Am            Em                                 Am
 Oh, life is bigger.  It's bigger than you and you are not me.  The lengths 
            Em                           Am   Em                     Dm
that I will go to, the distance in your eyes.  Oh no, I've said too much.  I set 
   G                      Am                        Em                      Am
it up.  That's me in the corner.  That's me in the spotlight.  Losing my religion.
           Em                     Am                        Em                      
Trying to keep up with you and I don't know if I can do it.  Oh no, I've said too
 Dm                      G
much.  I haven't said enough.


[Chorus]
                             F                           G        Am        F               
I thought that I heard you laughing.  I thought that I heard you sing.  I think I thought
  Dm7  G   Am
I saw you try.


[Verse 2]

(G)       Am                      Em                       Am                   Em
    Every whisper of every waking hour, I'm choosing my confessions.  Trying to keep an eye
               Am                              Em                      Dm             G
on you like a hurt, lost and blinded fool.  Oh.  Oh no, I've said too much.  I set it up.  
          Am                      Em                             Am                    Em
Consider this, consider this the hint of the century.  Consider this, the slip, that brought
                         Am                              Em      
me to my knees failed.  What if all these fantasies come, flailing around?  And now, I've 
 Dm        G
said, too much.


[Chorus]

                             F                           G        Am        F               
I thought that I heard you laughing.  I thought that I heard you sing.  I think I thought
  Dm7  G   Am
I saw you try.


[Instrumental]

    G
e|--3------------------5-----3-------------------|   
B|--0--------3---5------------------5----3-------|
G|--0-----5--------------------------------------|
D|--0--------------------------------------------|
A|--2--------------------------------------------|
E|--3--------------------------------------------|

e|--12--12--12---10--10--10--10--10------------------------------------------|
B|---------------------------------------13--13--13---10--10--10--10--10-----|
G|---------------------------------------------------------------------------|
D|---------------------------------------------------------------------------| X4
A|---------------------------------------------------------------------------|
E|---------------------------------------------------------------------------|


[Verse 3]

     C               Dm       C             (Dm)   (Instrumental Ends)
But that was just a dream.  That was just a dream.
                   Am                       Em                     Am 
That's me in the corner.  That's me in the spotlight.  Losing my religion.  Trying to
 Em                     Am                       Em                      Dm            
keep up with you and I don't know if I can do it.  Oh no, I've said too much.  I haven't 
       G
said enough.


[Chorus]

                             F                           G        Am        F               
I thought that I heard you laughing.  I thought that I heard you sing.  I think I thought
  Dm7  G   Am
I saw you try.


[Verse 4]

Am       F              Dm7/G    Am                      F               Dm7/G         Am
    But that was just a dream.  Try.  Cry.  Why?  Try.  That was just a dream, just a dream,
         G
just a dream, dream.


[Ending]

e|--12-12-12-12--12-12-12-12--|
B|----------------------------|
G|----------------------------|
D|----------------------------|  X4
A|----------------------------|
E|----------------------------|

Slower
e|----12--10-------------10----------------------------------|
B|-------------13---10-------13---10---13----10--------------|
G|-----------------------------------------------------------|
D|-----------------------------------------------------------|
A|-----------------------------------------------------------|
E|-----------------------------------------------------------|
Suggest correction
comments
print report bad tab
8 comments total. Showing first comments.
+2 reply
tagspot 130 Jul 03, 2014 05:53 PM

Nice work.

+1 reply
LesPaulM8 10 Aug 10, 2014 01:26 AM

Nice work mate.

+1 reply
andrew.j.thomas 10 Aug 29, 2014 03:44 PM

Nice work mate, wow.

guest
You may want to rate the tab now too:
select rating
Wanna post a correction for this tab? Suggest correction