Oops, an error
Loading. Please wait.
We have an official Losing My Religion tab made by UG professional guitarists. Check out the tab »
×
by R.E.M.
781 views 3 this week
no commentswrite comment
1 2 3 4 5
3 more votes to show rating
add to favorites
×
Save as Personal and add changes to this tab that will be seen only by you. Learn more ›
×
You can save this tab as Personal to edit and correct it or add notes. All changes will be seen only by you. Learn more »
launch autoscroll
font size
0
reset
guitar tuner
backing track
0:00
0:00
edit
Autoscroll
slow
fast
+/-
esc
set tempo
stop
Author
Difficulty
-------------------------------------------------------------------------------
                             LOSING MY RELIGION - R.E.M.
-------------------------------------------------------------------------------

I know there are already a couple of bass tabs for this song that are rated with 5 stars
but, since the bass is barely audible in the final mix, I listened to the isolated bass
track and I found some differences (which I tried to tab down for personal use). I'm kinda
satisfied with the final result and I'd like to share it. I'll understand if the tab is
rejected for its unnecessariness, anyway, but please verify it listening to the isolated 
track because this is very accurate.
Lots of open strings, definitely not my style, but they suit Mills' sound.

This is the link for the bass track:

https://www.youtube.com/watch?v=jTziqYqtaRE

INTRO (0:02-0:17)
G|---------------·-·-----2~---------------·-·-----2~--------|
D|-0-2-0---3-3~--0-0-5-5--------0-2-3-3~--0-0-5-5-----------|
A|-------0------------------2-3-----------------------------|
E|---------------------------------------------------5-5-3~-|

VERSE 1 (0:18-1:17)
G|----------------------------------------------------------------------------|
D|-----------------2~------------------------2~------------------------2~-----|
A|-·-·-0-0~--0-2-3---------------0-0~--0-2-3---------------0-0~--0-2-3--------|
E|-3-3----------------2-0--0-2-3----------------2-0--0-2-3----------------2-0-|

G|-----------------------------------------------------|
D|---2-1-0-0~-----------------------------------2~-----|
A|-2-------------5-5-7--------------0-0~--0-2-3--------|
E|-------------5-------3-3~---3-3-3----------------2-0-|

                              x2
G|-----------------------------|   G|--------------------------|
D|o-------------------2~------o|   D|---2-1-0-0~----------5-5~-|
A|o-------0-0~--0-2-3---------o|   A|-2-------------5-5-7------|
E|--0-0-3----------------2-0---|   E|-------------5------------|
                                   
CHORUS 1 (1:18-1:33) ("I thought that I heard you laughing...")
G|-----------------·-·-----2~---------------·-·-----2~--------|
D|---0-2-0---3-3~--0-0-5-5--------0-2-3-3~--0-0-5-5-----------|
A|-3-------0------------------2-3-----------------------------|
E|-----------------------------------------------------5-5-3~-|

VERSE 2 (1:34-2:35)
It's just the same as verse 1, but I can hear a slight difference (I may be wrong), so I tabbed it.

G|----------------------------------------------------------------------------|
D|-----------------2~------------------------2~------------------------2~-----|
A|-·-·-0-0~--0-2-3---------------0-0~--0-2-3---------------0-0~--0-2-3--------|
E|-3-3----------------2-0--0-0-3----------------2-0--0-0-3----------------2-0-|

G|-----------------------------------------------------|
D|---2-1-0-0~-----------------------------------2~-----|
A|-2-------------5-5-7--------------0-0~--0-2-3--------|
E|-------------5-------3-3~---3-3-3----------------2-0-|

                              x2
G|-----------------------------|   G|--------------------------|
D|o-------------------2~------o|   D|---2-1-0-0~----------5-5~-|
A|o-------0-0~--0-2-3---------o|   A|-2-------------5-5-7------|
E|--0-0-3----------------2-0---|   E|-------------5------------|

CHORUS 2 (2:35-2:50)
Ok, this is really the same as the first!

BRIDGE (2:51-3:05) ("But that was just a dream...")
G|-------------------------------------------|
D|-------------------------------------------|
A|-·-·-0~------------------3~---5~---3~---5~-|
E|-3-3------3~---1~---3~---------------------|

VERSE 3 (3:06-3:36)
G|------------------------------|
D|---0-2-0-·-------------2~-----|
A|-3-------0-0-0~--0-2-3--------|
E|--------------------------2-0-|

                              x2
G|-----------------------------|   G|--------------------------|
D|o-------------------2~------o|   D|---2-1-0-0~----------5-5~-|
A|o-------0-0~--0-2-3---------o|   A|-2-------------5-5-7------|
E|--0-0-3----------------2-0---|   E|-------------5------------|

CHORUS 3 (3:37-4:06)
G|-----------------·-·-----2~---------------·-·-----2~---------------·-·-----2~-|
D|---0-2-0---3-3~--0-0-5-5--------0-2-3-3~--0-0-5-5--------0-2-3-3~--0-0-5-5----|
A|-3-------0------------------2-3----------------------2-3----------------------|
E|------------------------------------------------------------------------------|

G|---------------·-·-----2~--------|
D|-----0-2-3-3~--0-0-5-5-----------|
A|-2-3-----------------------------|
E|--------------------------5-5-3~-|

OUTRO (4:07-4:28)
G|------------------------------|
D|------------------------------|
A|-·-·-0~-----------------------|
E|-3-3-------3h5~---3h5~---3h5~-|


| /  slide up
| \  slide down
| h  hammer-on
| p  pull-off
| ~  let ring
| +  harmonic
| x  Mute note
===============================================================================
Suggest correction
Creating personal tab
Creating personal tab
You can edit any tab online and save it as your Personal.

You can edit, replace or remove any tab part or add personal notes – all changes will be seen only by you.

Personal tabs can be accessed anytime from any device, even offline.
Learn more »
Give kudos to tab author, rate the tab!
1 2 3 4 5
comments
print report bad tab
guest
You may want to rate the tab now too:
select rating
Wanna post a correction for this tab? Suggest correction