Oops, an error
Loading. Please wait.

Man-Sized Wreath Bass Tab

version 1
version 1

Whole song

Interactive

1,181 views 1 this week
no commentswrite comment
1 2 3 4 5
please rate
add to favorites
launch autoscroll
font size
0
reset
guitar tuner
Tab Pro tools
  • play this tab
  • loop segment
  • change instrument
  • show fretboard
  • metronome
×
Best way to learn
"Man-sized Wreath"
Autoscroll
slow
fast
+/-
esc
set tempo
stop
Contributor
Difficulty
intermediate
-------------------------------------------------------------------------------
                           MAN-SIZED WREATH by R.E.M.
-------------------------------------------------------------------------------

Tabbed By : Stephan Preuss
e-mail: tete@gmx.net

Tuning: EADG

Verse

G|-------------------------------| (2x)
D|---------3----------0h3--------|
A|-----3h5---5-3----------5-3-5--|
E|-3-3------------3-3------------|

G|-------------------------------|
D|-----33-66--6-66--10-10-11-----|
A|-4-4---------------------------|
E|-------------------------------|

Chorus

Part I
G|---------------------------------------|
D|------------------------------2-0------|
A|--------2-3-5--5-5-3--2--2-2-0----3-2--|
E|-5--5-5--------------------------------|

Part II
G|-----------------|
D|-----------------|
A|-3-2-0-5-3-0-5---|
E|-----------------|

These are the basic parts. Feel free to vary them ;-)

The progression is like this:

Verse          (2x)

Chorus Part I  (1x)
Chorus Part II (1x)

Verse          (2x)

Chorus Part I  (2x)
Chorus Part II (1x)

Verse          (1x)

Chorus Part I  (3x)
Chorus Part II (4x)



| /  slide up
| \  slide down
| h  hammer-on
| p  pull-off
| ~  vibrato
| +  harmonic
| x  Mute note
===============================================================================
comments
We did not receive enough feedback on this tab! Please rate:
print report bad tab
1 2 3 4 5
I want to post or [tab]
guest
You may want to rate the tab now too:
select rating
Please do not post tabs as comments. Select "correction" instead!