Oops, an error
Loading. Please wait.

Man On The Moon Bass Tab

version 1
version 1

Whole song

Interactive

18,957 views 27 this week
1 commentread comment
1 2 3 4 5
accurate
x 11
add to favorites
launch autoscroll
font size
0
reset
guitar tuner
Tab Pro tools
  • play this tab
  • loop segment
  • change instrument
  • show fretboard
  • metronome
×
Best way to learn
"Man On The Moon"
Autoscroll
slow
fast
+/-
esc
set tempo
stop
#----------------------------------PLEASE NOTE---------------------------------#
#This file is the author's own work and represents their interpretation of the #
#song. You may only use this file for private study, scholarship, or research. #
#------------------------------------------------------------------------------#
#

MAN ON THE MOON

From: Acetone1@aol.com

Verse:
G----------------------------------------------------------------|
D-----------5-7-------------7-9-----------5-----------5----------|
A--3-3-3---------5-5-5----------3-3-3-----3-3-3------------------|
E------------------------------------------------------------3---|

Andy did you hear....
G---------------------------------------------------|
D-----5-------------5-6----------7------------------|
A--3----3-------5-------------7---------5--2--------|
E-------------3-------------5---------3---------3---|

G---------------------------------------------|
D--------7--------------------------------5-4-|
A-----7--------2-3---5-5-5---5-5-5--------5---|
E--5--------3---------------------------------|

Chorus:
G-----------------------------------------------------------------------------------------------------|
D----------------------------------------------------------------------------------7-7---------7----|
A---------------3--2-2---------------5-5-5--3-2--------------3-2-2------7------7----7------|
E--3-3--5-5-------------3-3--5-5-----------------3-3--5-5-----------5------------5-------5-|

Guitar Bridge: (7/9/10 = 7, hammer on 9, slide to 10)
G---------------------|        G------------------------|
D---------------------|        D-----5----------5----5--|
A--7-7/9/10--5--5-5-5-|  3x    A--3----5----3----3------|
E---------------------|        E-----------5------------|


comments
print report bad tab
1 comment total.
+1 reply
PopcornKing wrote on April 10 2013, 06:26 pm

For the verse, I believe it should be

G---------------|---------------|---------------|-------------|
D----------5---7|----------7---9|----------5----|----------5--|
A---3---3-------|---5---5-------|---3---3-------|---3---3-----|
E---------------|---------------|---------------|------------3|

I listened to the song, and you verse part does not quite match, just a minor thing really.

I want to post or [tab]
guest
You may want to rate the tab now too:
select rating
Please do not post tabs as comments. Select "correction" instead!