Oops, an error
Loading. Please wait.

Me Marlon Brando Marlon Brando And I Tab

311 views 1 this week
no commentswrite comment
1 2 3 4 5
please rate
add to favorites
launch autoscroll
font size
0
reset
how to read this tab
guitar tuner
Tab Pro tools
  • play this tab
  • loop segment
  • change instrument
  • show fretboard
  • metronome
×
Best way to learn
"Me Marlon Brando Marlon Brando And I"
Autoscroll
slow
fast
+/-
esc
set tempo
stop
Contributor
------------------------------------------------------------------------
                ME, MARLON BRANDO, MARLON BRANDO AND I - REM
------------------------------------------------------------------------
Tabbed by: Barnaby Wilde
Email:

Intro and End
e|-0--|
B|-1--|
G|-2--|
D|-3--|
A|-0--|
E|----|
Mandolin
e|-0---|
A|-0---|
D|-2---|
G|-0---|

Verse
e|-1---1-3-3>5-5---|
B|-3---3-3-3>5-5---|
G|-2---2-2-2---5---|
D|-0---0-0-0---0---|
A|-------------0---|
E|-------------5---|
Mandolin
e|-1-1--1--1--3>5-0-|
A|-0--0--0--0-----0-|
D|-0---0--0--0----2-|
G|-2--------------5-|

Chorus
e|-0---0------3---0------|
B|-1---1------0---1------|
G|-2---0------0---2------|
D|-3---2------0---3------|
A|-0---3------x---0------|
E|-----0--x2--3---0---x4-|
Mandolin
e|-0---0-0---0------3-3--3--3---0-0--0--3--0-----|
A|-0---0-0---0------2--2--2--2--0--0--0--0--0----|
D|-5---3-2---0------0---0--0--0-2---2--2--2--2---|
G|-0---0-0---0-x2---0-----------0-------------x4-|
comments
We did not receive enough feedback on this tab! Please rate:
print report bad tab
1 2 3 4 5
I want to post or [tab]
guest
You may want to rate the tab now too:
select rating
Please do not post tabs as comments. Select "correction" instead!