Oops, an error
Loading. Please wait.

Monty Got A Raw Deal Tab

version 1
version 1

Whole song

Interactive

6,852 views 15 this week
1 commentread comment
1 2 3 4 5
accurate
x 4
add to favorites
launch autoscroll
font size
0
reset
how to read this tab
guitar tuner
Tab Pro tools
  • play this tab
  • loop segment
  • change instrument
  • show fretboard
  • metronome
×
Best way to learn
"Monty Got A Raw Deal"
Autoscroll
slow
fast
+/-
esc
set tempo
stop
Contributor
song      : monty got a raw deal
artist    : r.e.m
tabbed by : oneshotnothing


this isn't exact, but pretty close. play around with it.

open g tuning - Dgdggd



INTRO/FIRST VERSE


d-|5-5-----5/7\5-0-|--3-----------0-|--5-----5/7\5-0-|--3-----3-----0-|
g-|0---0---0-----0-|--------5---3-0-|----0---0-----0-|------------3-0-|
g-|0-----0-3/5\3-0-|----3-----3-3-0-|------0-3/5\3-0-|----3-----3-3-0-|
d-|0-------0-------|------3-----3-0-|--------0-------|------3-----3-0-|
g-|0-------0-------|3---------------|0-------0-------|3---------------|
D-|----------------|----------------|---------------------------------|
   ^   ^   ^   ^   |^   ^   ^   ^   |^   ^   ^   ^   |^   ^   ^   ^   |
   1   2   3   4    1   2   3   4    1   2   3   4    1   2   3   4    


d-|5-5-----5/7\5-0-|--3-----------0-|----0-------0---|------0---------|
g-|0---0---0-----0-|--------5-------|------0-------0-|--0-------0-----|
g-|0-----0-3/5\3-0-|----3-----3-----|--2-------------|--------------0-|
d-|0-------0-------|------3-----3---|0---------2-----|0---0-------0---|
g-|0-------0-------|3---------------|--------5-------|0---------------|
D-|----------------|----------------|---------------------------------|
   ^   ^   ^   ^   |^   ^   ^   ^   |^   ^   ^   ^   |^   ^   ^   ^   |
   1   2   3   4    1   2   3   4    1   2   3   4    1   2   3   4    


SECOND VERSE - strum the intro/verse instead of picking


CHORUS

d-|12-10-12-15-12----10----|------------------------|
g-|------------------------|14-12-10----12----------|
g-|------------------------|------------------------|
d-|------------------------|------------------------|
g-|------------------------|------------------------|
D-|------------------------|------------------------|
   ^     ^     ^     ^      ^     ^     ^     ^
   1     2     3     4      1     2     3     4


d-|0-----0-----0-----0-----|0--------0--------------|
g-|0-----0-----0-----0-----|0--------0--------------|
g-|0-----0-----0-----0-----|0--------0--------------|
d-|3-----3-----5-----5-----|0--------0--------------|
g-|3-----3-----5-----5-----|0--------0--------------|
D-|------------------------|------------------------|
   ^     ^     ^     ^      ^     ^     ^     ^


ENDING

d-|----0-------0---|0---------------|
g-|------0-------0-|0---------------|
g-|----------------|0---------------|
d-|--0-------2-----|0---------------|
g-|3-------5-------|0---------------|
D-|----------------|----------------|
   ^   ^   ^   ^    ^   ^   ^   ^   
   1   2   3   4    1   2   3   4
comments
print report bad tab
1 comment total.
0 reply
oneshotnothing wrote on April 27 2012, 11:05 pm

someone want to tell me what's wrong with this tab? it sounds pretty right to me...

I want to post or [tab]
guest
You may want to rate the tab now too:
select rating
Please do not post tabs as comments. Select "correction" instead!