Oops, an error
Loading. Please wait.

Murmur Tab

4,065 views 15 this week
no commentswrite comment
1 2 3 4 5
please rate
add to favorites
launch autoscroll
font size
0
reset
how to read this tab
guitar tuner
Tab Pro tools
  • play this tab
  • loop segment
  • change instrument
  • show fretboard
  • metronome
×
Best way to learn
"Murmur"
Autoscroll
slow
fast
+/-
esc
set tempo
stop
Contributor
------------------------------------------------------------------------
			     Radio Free Europe - REM
------------------------------------------------------------------------
Tabbed by: Barnaby Wilde
Email:

Tuning:

Verse:
A-D-E
e|--0--2-0-----------------------------|
B|--0--3-0-----------------------------|
G|--2--2-1-----------------------------|
D|--2--0-2-----------------------------|
A|--0----2-----------------------------|
E|--0----0-----------------------------|

Bridge 1:
"Radio station ... "
e|--0--0--0-0-0----0--0--0----0--------|
B|--0--0--0-0-0----0--0--0----0--------|
G|--3--6--1-2-1----3--6--8----1--------|
D|--4--7--2-2-2----4--7--9----2--------|
A|--4--7--2-0-2----4--7--9----2--------|
E|--0--0--0-0-0----0--0--0----0--------|

Chorus:
"Calling on ... "
e|--7--5-5-5---------------------------|
B|--9--5-5-5---------------------------|
G|--9--6-7-6---------------------------|
D|--9--7-7-7---------------------------|
A|--7--7-5-7---------------------------|
E|--7--5-5-5---------------------------|

Bridge 2:
"Decide yourself ..."
e|---0--0--0-0--0----0--0--0-0--7-----|
B|----4--4----4--4-0--5--5----5--5-5--|
G|--4--4--4----4--4-6--6--6----6--6---|
D|------------------------------------|
A|------------------------------------|
E|------------------------------------|

------------------------------------------------------------------------
			     Pilgrimage - REM
------------------------------------------------------------------------
Tuned up 1/2 step.
It's also fun to play this capo 3.  I've included Capo 3 tab.

Opening Bass/ Piano line
e|-------------------|
B|-------------------|
G|-------------------|
D|-------------------|
A|-3-3-3-3-----------|
E|--3-1-3------------|

Verse (Picked):
e|-------------------------|
B|-------------------------|
G|---0--0------------------|
D|--3--3-0--0--0-----------|
A|-1--1----3--3-0----------|
E|--------1--1-------------|

With Capo on 3 (Picked):
e|-------------------------|
B|--3-5-3-5----0--0--------|
G|-0---0---4--2--2---------|
D|-----------0--0----------|
A|-------------------------|
E|-------------------------|

Before bridge to Chorus:
e|------0----------------------------|
B|------1----------------------------|
G|----0-0----------------------------|
D|---0--2----------------------------|
A|--3---3----------------------------|
E|-1----0----------------------------|

If you capo 3:
e|----0-0-------------------|
B|---0--2-------------------|
G|--2---2-------------------|
D|-0----2-------------------|
A|------0-------------------|
E|------0-------------------|

Bridge to Chorus:
F-G
Chorus:
F-C-G

Bridge after Chorus:
C-G-Bb-G

Bridge at the end between choruses:
Bb-C (Barred)

End with:
e|----------------------|
B|----------------------|
G|------0---------------|
D|--3-3-----------------|
A|-1-1------------------|
E|----------------------|

With Capo on 3 (Picked):
e|----------------------|
B|--3-3-5---------------|
G|-0-0------------------|
D|----------------------|
A|----------------------|
E|----------------------|

------------------------------------------------------------------------
			     Laughing - REM
------------------------------------------------------------------------
Bass Intro for guitar:
e|-----------------------------------------------|
B|-----------------------------------------------|
G|-----------------------------------------------|
D|-------------------------7-9-9-9-9-9-9---------|
A|-4-4-4-4-4-4--4-4----7-7---------------7-------|
E|----------4-------4-7-7------------------------|

Verse:
C#m-C#m(add e)-E
e|-4--7--7----------------------------------|
B|-5--5--9----------------------------------|
G|-6--6--9----------------------------------|
D|-6--6--9----------------------------------|
A|-4--4--7----------------------------------|
E|-4--4--7----------------------------------|

Bridge to Chorus:
A-E-C#m-C#m(add e)x2 then -E
e|-5--7--4--7--4--7----0--------------------|
B|-5--9--5-------------0--------------------|
G|-6--9--6--------x2---1--------------------|
D|-7--9--6-------------2--------------------|
A|-7--7--4-------------2--------------------|
E|-5--7--4-------------0--------------------|

Chorus:
e|--0--0--0--0--0--0--0--0--0--0-----------|
B|--0--0--0--0--0--0--0--0--0--0-----------|
G|--2--4--2--4--2--4--1--2--1--1-----------|
D|--4--6--4--6--4--6--2--2--2--2-----------|
A|--------------------2--0--0--2-----------|
E|--------------------0--------------------|

Bridge to Verse:
"In a room ... "
e|--0--0-------------------0---------0----------------|
B|--5--0--------0------0---5--5-4-0--0-------0--------|
G|--6--1---1-2h--1-2h------6---------1--1-2h---2-1-0--|
D|-----2-2---------------------------2----------------|
A|-----2-----------------------------2----------------|
E|-----0-----------------------------0----------------|


------------------------------------------------------------------------
			     Talk About The Passion - REM
------------------------------------------------------------------------
Tabbed by: Barnaby Wilde
Email:

Intro and Verse: Hit G Chord before chorus
e|-------------------------------------------------|
B|-------------------------3-------3-2-0-----------|
G|-22--------22-----------0-0-----2-----2----------|
D|-00-0-2-4--00-0-2-4-0--2---2---2-----------------|
A|----------------------3-----3-0------------------|
E|-------------------------------------------------|

Chorus:
e|-0-0-0-0-3-3-3-2-0--0-----------------------------|
B|-2-0-2-0-3-3-3-----3-3----------------------------|
G|-2-2-2-2----------0---0---------------------------|
D|-2-2-2-2-2-2-2-2-2--------------------------------|
A|---------2-2-2-2-2--------------------------------|
E|--------------------------------------------------|

Bridge: Hit G Chord before returning to chorus
"Combien ... "
e|----1----0-0--0-----------------------------------|
B|-1-1-1-1----0-------------------------------------|
G|--2---2-2-2--2------------------------------------|
D|--------------------------------------------------|
A|--------------------------------------------------|
E|--------------------------------------------------|

Lead: x2
e|-2-2-3-5-2-2-3-5-2-3-3-3-2-0-----0-2-0------------|
B|-3-3-3-3-3-3-3-3-3-3-3-3-3-3----3-----------------|
G|-2-2-2-2-2-2-2-2-2-2-2-2-2-2---0------------------|
D|--------------------------------------------------|
A|--------------------------------------------------|
E|--------------------------------------------------|

------------------------------------------------------------------------
			     Moral Kiosk - REM
------------------------------------------------------------------------

Intro and Chorus:
e|-0-0-0-0-0-0-0-0-0-0-----------------------------|
B|-3-3-3-3-3-3-3-3-3-3-----------------------------|
G|-4-2-2-4-2-2-4-2-2-4-----------------------------|
D|-0-0-0-0-0-0-0-0-0-0-----------------------------|
A|-------------------------------------------------|
E|-------------------------------------------------|

Verse:
e|-10-10---0---------------------------------------|
B|--x--x---0--0-----0------------------------------|
G|--7--6---1-3-3-1-3-3-1---------------------------|
D|--7--7---2---------------------------------------|
A|---------2---------------------------------------|
E|---------0---------------------------------------|

Bridge 1:
"So much more attractive ... "
e|-0-0-0-0-----------------------------------------|
B|-0-0-0-0-----------------------------------------|
G|-2-4-9-4-----------------------------------------|
D|-4-6-9-4-----------------------------------------|
A|-4-6-7-2-----------------------------------------|
E|-0-0-0-0-----------------------------------------|

Bridge 2: Pick last B chord formation
e|-0-0-0-0-0-2-------------------------------------|
B|-0-0-0-0-0-4-------------------------------------|
G|-7-6-4-7-6-4-------------------------------------|
D|-7-6-4-7-6---------------------------------------|
A|-5-4-2-5-4---------------------------------------|
E|-0-0-0-0-0---------------------------------------|

Bridge 3: x4 During final chorus
Only go to the 15/12 part 1st and 3rd times through
e|-0-0-0-0-0-0-15-12-15-12--------------------------|
B|-12-10-12-12-0-0-0-0-0-0--------------------------|
G|-0-0-0-0-0-0--------------------------------------|

------------------------------------------------------------------------
			     Perfect Circle - REM
------------------------------------------------------------------------

Also see piano tab ...

Verse: D-G
Nothing played on the album, but this sounds nice and it's close to what is played on 
 Strum the chord and pick out the notes:

e|-2-3-5-2-3-5-5-3-------|
B|-3-------3-------------|
G|-2-------0-------------|
D|---------0-------------|
A|---------2-------------|
E|---------3-------------|

During second verse:
e|-3--3-3-2--2--2-1--1--1--1--------|
B|--1--1---3--3----1--1--1--1-------|
G|---0--0---2--2----2--2--2--2------|
D|----------------------------------|
A|----------------------------------|
E|----------------------------------|

Chorus: F-C with pinkie notes
e|-1-3-1-0-1-0-1-3-1-0-1-3--------------------------|
B|-1-----1-0-0-1-----1-0-1--------------------------|
G|-2-----0-----2-----0------------------------------|
D|-3-----2-----3-----2------------------------------|
A|-------3-----------3------------------------------|
E|--------------------------------------------------|

PIANO TAB:

1. L and R is Left hand Right hand
2. The numbers on the right are the octave groups. Middle c is octave 4. All octaves start on c.
3. The lowercase letters are the whole notes- white keys.
4. The uppercase (In this case only 1) is a sharp note- black key.
5. This symbol (>) means sustain the note.
6. This symbol (|) separates the measures.

L 3|---g------|---------|---g------|---------|
L 4|--c-------|d>>>>>>>>|--c-------|d>>>>>>>>|
R 4|-f--F-g-a-|F-F-g-a-F|-f--F-g-a-|g-g-a-a-g|

L 3|f-----|e-----|d-----|e-f-g-|
R 4|-f-g-f|-f-e-f|-f-g-f|-f-f-g|

L 3|f-----|e-----|d-----|e-f-g--|
R 4|-f-g-f|-f-e-f|-f-g-f|fgfgfgf|


------------------------------------------------------------------------
			     Catapult - REM
------------------------------------------------------------------------
Verse 1:
e|---------------------------------|
B|---------------------------------|
G|--7-7-7-4-4-4-2-2-2-4b-2-2-------|
D|-5-5-5-2-2-2-0-0-0------0-0------|
A|---------------------------------|
E|---------------------------------|

e|------------------------------------|
B|------------------------------------|
G|--7-7-7-4-4-4-2-2-2-2-4h-4-2-4h-4-2-|
D|-5-5-5-2-2-2-0-0-0--0-0-0--0-0--0-0-|
A|------------------------------------|
E|------------------------------------|

Bridge:

e|-------------------------------------------|
B|---------0---------------------2-2-2-2-2---|
G|-5>7<5--0-2-2-2-2-2-2-2-2------2-2-2-2-2---|
D|-------2--0-0-0-0-0-0-0-0------2-2-2-2-2---|
A|-------------------------------------------|
E|-------------------------------------------|

Chorus:
e|-2-0-2--9--9--9--9-10-10------------------|
B|-3-3-3-10-10-10-10-10-10------------------|
G|-2-2-2--9--9--9--9--9--9------------------|
D|-0-0-0--0--0--0--0--0--0------------------|
A|------------------------------------------|
E|------------------------------------------|

Verse 2:
e|-0-0-2-3-2------0-2-0-2-3-----------|
B|-0-0------3-0--3--------------------|
G|-4-4---------2----------------------|
D|-0-0--------------------------------|
A|------------------------------------|
E|------------------------------------|

e|-0-0-2-3-2--------------------------|
B|-0-0------3-0-----------------------|
G|-4-4---------2-2-2-2-4h-2-4h-4-4----|
D|-0-0-----------0-0-0--0-0--0-0-0----|
A|------------------------------------|
E|------------------------------------|

Bridge 2:
e|--0--0--0----0--0--0-2--0--0----0--0--0----2--2--2--0--|
B|---3--3--3----3--3----3--3--3----3--3--3----3--3----2--|
G|-0--0--0--0-2--2--2----2--2--2-0--0--0--0-2--2--2---2--|
D|----------------------------------------------------2--|
A|----------------------------------------------------0--|
E|-------------------------------------------------------|

------------------------------------------------------------------------
			     Sitting Still - REM
------------------------------------------------------------------------

Intro and Chorus:
e|---------------------------------|
B|---------------------------------|
G|-6-4-2-6-4-4-4-6-4-2-------------|
D|-7-6-4-7-6-2-4-7-6-4-6-4-0-------|
A|---------------------------------|
E|---------------------------------|

Verses and Bridge 2:
e|---0------|
B|---0------|
G|-1-2------|
D|-2-4------|
A|-2--------|
E|----------|

Bridge 1:
"Up to par ..."
e|-7-7-7-5-0-0----|
B|-7-7-7-5-2-0----|
G|-8-9-8-6-2-2----|
D|-9-9-9-7-2-2----|
A|-7-7-7-5-0-0----|
E|-7-7-7-5-0-0----|

Last Chorus:
e|---------------------0-0-----------|
B|---------------------0-0-----------|
G|-6-4-2-6-4-4-4-6-4-2-1-2-----------|
D|-7-6-4-7-6-2-4-7-6-4-2-2-----------|
A|---------------------2-0-----------|
E|---------------------0-0-----------|

e|---------------------0-0-0----------|
B|---------------------0-0-0----------|
G|-6-4-2-6-4-4-4-6-4-2-1-2-1----------|
D|-7-6-4-7-6-2-4-7-6-4-2-4-2----------|
A|---------------------2-0-2----------|
E|---------------------0-0-0----------|


------------------------------------------------------------------------
			     9-9 - REM
------------------------------------------------------------------------

Bass intro:
e|------------------|
B|------------------|
G|------------------|
D|------------------|
A|--4-5-5>7-7-5<4-4-|
E|-5-5-5>>7<<<5-----|

Intro over bass:
e|--0-0-2-2>3--3--3--5-0----------|
B|-3-3---3---3--3--3--------------|
G|------------4--4--4-------------|
D|--------------------------------|
A|--------------------------------|
E|--------------------------------|

Verse:
e|-----7-7-7-7-7--7--7--7-7---------------|
B|-----9-9-9-9-9-10-10-10-9--12-12>13<12--|
G|-----9-9-9-9-9--9--9--9-9---------------|
D|-7-7-9-9-9-9-9--9--9--9-9---------------|
A|-7-7-7-7-7-7-7--7--7--7-7---------------|
E|-7-7-7-7-7-7-7--7--7--7-7---------------|

e|-----7-7-7-7-7--7--7--7-7-----------------|
B|-----9-9-9-9-9-10-10-10-9--10-7-10-7-10-7-|
G|-----9-9-9-9-9--9--9--9-9-----------------|
D|-7-7-9-9-9-9-9--9--9--9-9-----------------|
A|-7-7-7-7-7-7-7--7--7--7-7-----------------|
E|-7-7-7-7-7-7-7--7--7--7-7-----------------|


e|-----7-7-7-7-7--7--7--7-7--9-8-6--|
B|-----9-9-9-9-9-10-10-10-9--9-8-6--|
G|-----9-9-9-9-9--9--9--9-9--9-8-6--|
D|-7-7-9-9-9-9-9--9--9--9-9--9-8-6--|
A|-7-7-7-7-7-7-7--7--7--7-7--9-8-6--|
E|-7-7-7-7-7-7-7--7--7--7-7--9-8-6--|

Chorus:
e|-0--0--0--0------------|
B|-7--5--3--5------------|
G|-0--0--4--0------------|
D|-9--7--5--7------------|
A|-9--7--5--7------------|
E|-0--0--0--0------------|

Bridge (Pick and slide):
e|-5--7--10<7<5--7----7---7-|
B|-3--5---8<5<3--5----------|
G|-4--6---9<6<4--6-4>6-4>6--|
D|--------------------------|
A|--------------------------|
E|--------------------------|

------------------------------------------------------------------------
			     Shaking Through - REM
------------------------------------------------------------------------

Intro and last Bridge to Chorus:
e|----------------|
B|-10-8-7-5-------|
G|-11-9-7-5-------|
D|--0-0-0-0-------|
A|----------------|
E|----------------|

Verses: D-Bm:
e|-2-0-2-0-3-2-0-2-0--2-0-2-0-2-0-2-0----|
B|-3-------------------------3-------0---|
G|-2-----------------4-------------------|
D|---------------------------------------|
A|---------------------------------------|
E|---------------------------------------|

Bridge 1: Em-A
e|-0-0-0-0-0------------------|
B|-0-2-3-0-2-2-0-2-0-3-2-0-2--|
G|-0-2-2-0-2----------------2-|
D|-2-2-2-2-2------------------|
A|-2-0-0-2-0------------------|
E|-0-0-0-0-0------------------|

Chorus: D-A-G
Hit the A chord going back to the D
e|-2-0-3-----|
B|-3-2-3-----|
G|-2-2-4-----|
D|-0-2-5-----|
A|---0-0-----|
E|---0-0-----|

Bridge 2 A-D-G-A-D-Em-A
e|-0-2-3-0-2-0-0--------------------|
B|-2-3-3-2-3-0-2-2-0-2-0-3-2-0-2----|
G|-2-2-4-2-2-0-2----------------2---|
D|-2-0-5-2-0-2-2--------------------|
A|-0---0-0---2-0--------------------|
E|-0---0-0---0-0--------------------|

Last Chorus: E-B-A
e|-7-7-5------|
B|-9-7-5------|
G|-9-8-6------|
D|------------|
A|------------|
E|------------|
End on B.

Interlude:
e|-0-5-10-7-5---|
B|-5-5--9-6-5---|
G|-4-4--8-7-4---|
D|-0-0--0-0-0---|
A|--------------|
E|--------------|

------------------------------------------------------------------------
			     We Walk - REM
------------------------------------------------------------------------

Like with Pilgrimage, Tune strings up 1/2 step.

Intro/Chorus: F-Dm-F-G
e|-1-1-1-1-1-1-3----|
B|-1-1-3-3-1-1-3----|
G|-2-2-2-2-2-2-4----|
D|-3-2-0-0-3-2-5----|
A|------------------|
E|------------------|

Verse: C-Am (x6)
e|----0-------0------|
B|-----1-------1-----|
G|---0--0----2--0----|
D|--2-------2--------|
A|-3-----3-0---------|
E|-------------------|

Em
e|------7--------|
B|-----8---------|
G|----9----------|
D|---9-----------|
A|--7------------|
E|-7-------------|

Bridge (Picked):
Am-F-Bb-C (x3)
Second Guitar walk:
e|----------------------|
B|----------------------|
G|----------------------|
D|-3-2-0----------------|
A|------3-3-2-0---------|
E|-------------1--------|

Am-F-Bb-Bb/B/C
Second Guitar Walk:
e|----------------------|
B|----------------------|
G|----------------------|
D|-3-2-0----------------|
A|------1-2-3-----------|
E|----------------------|


------------------------------------------------------------------------
			     West Of The Fields - REM
------------------------------------------------------------------------

Intro:

e|-1-0-1-0---|
B|-1-1-1-1---|
G|-2-2-2-2---|
D|-3-3-3-3---|
A|-3-3-3-3---|
E|-1-0-1-0---|

Verse:
e|-7-5>6<5-0-0--3-1-1-1-1-|
B|-8-7-------1--3-1-0-1-0-|
G|-9-7-------2--0-2-2-2-2-|
D|-9-7-------3--0-3-3-3-3-|
A|-7-5-------0--2-3-3-3-3-|
E|-7-5-------0--3-1-0-1-0-|

Chorus:
e|-0-3------0-------------------------|
B|-0-3------1-------------------------|
G|-0-0-x8---2-------------------------|
D|-2-0------2-------------------------|
A|-2-2------0-------------------------|
E|-0-3------0-------------------------|

Bridge :
"The outer walls ... "
e|-0-1-1-3---|
B|-0-1-3-3---|
G|-0-2-2-0---|
D|-2-3-0-0---|
A|-2-3---2---|
E|-0-1---3---|

Second Guitar on Last Verse:
e|-3-3-3-5-2-2-3-2-0------|
B|------------------1-1---|

End on Em
comments
We did not receive enough feedback on this tab! Please rate:
print report bad tab
1 2 3 4 5
I want to post or [tab]
guest
You may want to rate the tab now too:
select rating
Please do not post tabs as comments. Select "correction" instead!