Oops, an error
Loading. Please wait.

One I Love Tab

74,949 views 306 this week
1 commentread comment
1 2 3 4 5
accurate
x 12
add to favorites
launch autoscroll
font size
0
reset
how to read this tab
guitar tuner
Tab Pro tools
  • play this tab
  • loop segment
  • change instrument
  • show fretboard
  • metronome
×
Best way to learn
"One I Love"
Autoscroll
slow
fast
+/-
esc
set tempo
stop
Difficulty
intermediate
                                   R.E.M.
                              The One I love
  This is a pretty Easy song you can learn to play along to pretty quickly!

Intro -
|-------------------0---------0-----------0------0----0---0-----|
|-----------------------3/5------0------------3-----0---0-------|
|---------------------------------------------------------------|
|-------------0-------------------------------------------------|
|---------0-----------------------------------------------------|
|-0-0-2/3----------------------------0--------------------------|

Em                  Dsus2       Em
This one goes out to the one I love
                   Dsus2           Em
This one goes out to the one I've left behind
G       Dsus4  Dsus2
A simple prop
     C
To occupy my time
Em                  Dsus2       Em
This one goes out to the one I love

Em       Dsus2       Em
Fire ................
Em       Dsus2       Em
Fire ................


Em                Dsus2        Em
Fire (she's comin' down on her own, now)
Em                Dsus2        Em
Fire (she's comin' down on her own, now)


Solo -
|------------------------------------------------------------------------|
|--------3----5--3---------3------5--3---------3-----5--3---3/5----------|
|---2/4----4--------2/4-------4---------2/4-------4----------------------|
|------------------------------------------------------------------------|
|------------------------------------------------------------------------|
|------------------------------------------------------------------------|


|----------------------------------------------------------0-------------|
|--3--0-----------------------------3-------------------0------3---------|
|--------2--0-----------0---0--2/4-----2H4--2P---------------------------|
|-------------2--0---2----2----------------------2P--2-----------------2-|
|------------------------------------------------------------------------|
|-----------------------------------------------------------------3BU----|

Em                  Dsus2       Em
This one goes out to the one I love
                   Dsus2           Em
This one goes out to the one I've left behind
G       Dsus4  Dsus2
Another prop
        C
Has occupied my time
Em                  Dsus2       Em
This one goes out to the one I love


Em                Dsus2        Em
Fire (she's comin' down on her own, now)
Em                Dsus2        Em
Fire (she's comin' down on her own, now)
Em                Dsus2        Em
Fire (she's comin' down on her own, now)
Em                Dsus2        Em
Fire (she's comin' down on her own, now)


/ - Slide
H - Hammer On
P - Pull Off
BU - Bend Up
BD - Bend Down
comments
print report bad tab
1 comment total.
+1 reply
joeyjokester wrote on October 6 2010, 05:32 pm

Ok so the intro actually goes:


|------------------0-------0--------0----0--------0------0|
|---------------------3/5----0---------3------0-------0---|
|-----------------------------------------------0-------0-|
|-------------0-------------------------------------------|
|----------0----------------------2-----------------------|
|-0-0-2/3-----------------------0-------------------------|



This may be tough to get at first, but you play the first 4 notes on the low E and the A as a measure, then a *slight pause*, the do the 0 3/5 0 0 on the high E and B strings, *slightly longer pause* 0 2 0 3 0 on the low E, A, High E, B high E. *same length pause* then 0 0 0 0 0 0 to end it out.

Also, the verse:

Em Dsus2 Em Em7 Em (you only do the Em7 for 2 strokes).

Em7 = 02203x

solo:


|----------------------------------------------------------|
|----3----5--3---------3------5--3---------3-----5--3---3/5|
|-2/4----4--------2/4-------4---------2/4-------4----------|
|----------------------------------------------------------|
|----------------------------------------------------------|
|----------------------------------------------------------|

|----------------------------------------------------------|
|3-----------------------------------3---------------------|
|----4--2--0------------0---0--2/4------4--2-0-----------0-|
|-------------2--0--2-----2---------------------2--0--2----|
|----------------------------------------------------------|
|----------------------------------------------------------|

|-0--------------------------------------------------------|
|--------3-------------------------------------------------|
|----------------------------------------------------------|
|-----------------2----------------------------------------|
|----------------------------------------------------------|
|-------------3--------------------------------------------|

I want to post or [tab]
guest
You may want to rate the tab now too:
select rating
Please do not post tabs as comments. Select "correction" instead!