Oops, an error
Loading. Please wait.

Orange Crush Bass

version 1
version 1

Whole song

Interactive

by R.E.M.
4,814 views 1 this week
3 commentsread comments
1 2 3 4 5
x 9
add to favorites
launch autoscroll
font size
0
reset
guitar tuner
backing track
0:00
0:00
Autoscroll
slow
fast
+/-
esc
set tempo
stop
#----------------------------------PLEASE NOTE---------------------------------#
#This file is the author's own work and represents their interpretation of the #
#song. You may only use this file for private study, scholarship, or research. #
#------------------------------------------------------------------------------#
#

ORANGE CRUSH

From: Acetone1@aol.com

On the tab, the slashes (5/7) are for hammer-ons


Verse:
G-----------------------------------------------------------|
D-----------------------------------------------------------|
A---------------------------------------4/5--5-5-5-----5/7--|
E---0-0-0---0-0-0----2/3--3-3-3-----------------------------|
                                                         ^song starts here

Chorus: 
G--------------------------------------------------------------------------------------------|
D--2-2-2-2-2-2-2-2-----------------4--------------------------------------------------|
A--------------------2-2-2-2-2-2-2------------------------4--2-2-2-2-2-2-4-2----|
E-----------------------------------------2-2-2-2-2-2-2--------------------------------|

I  strongly recommend playing this w/ a pick
Also, throwing some slides in between the parts
of the verse sounds cool

Suggest correction
comments
print report bad tab
3 comments total.
0 reply
dsun88 10 Dec 13, 2007 04:26 PM

I think the chorus is better as

G--------------------------------------------------------------------------------------------|
D--2-2-2-2-2-2-2-1-----------------2--------------------------------------2-----------|
A--------------------2-2-2-2-2-2-4---4----------------------2-2-2-2-2-2-4----4----|
E-----------------------------------------2-2-2-2-2-2-2--4-----------------------------

0 reply
nextdooremokid1 10 Feb 19, 2008 03:46 PM

I dont like that chorus
Listen to the song

0 reply
brokenheart77 15 Oct 03, 2008 03:56 PM

cool!

guest
Wanna post a correction for this tab? Suggest correction